Motorhead tabs...
                            White Line Fever

                                Motorhead

Originally released on the "Motorhead" album

Version 1.6
January 11th, 1998

Transcribed by Matt Javes (matt@redstart.demon.co.uk)
Bass by Dave Death (KaosFrenzy@aol.com)

Visit Catch My Smoke - The Motorhead Tab Page
http://www.cs.mcgill.ca/~ktulu/motorhead

Standard tuning.

 .  = palm mute
h/p = hammer on/pull off

-=Guitar=-

Main Riff
e|-----------------|
B|-----------------|
G|-----------------|
D|-----------------|
A|-53----------3---|
E|-----53--35------|

Verse
e|-----7------9--7-----7------9--7-|
B|-----8------10-8-----8------10-8-|
G|-----7------9--7-----7------9--7-|
D|---------------------------------|
A|---------------------------------|
E|-0000--0-000-----0000--0-000-----|
   ....  . ...     ....  . ...

Chorus
e|-----------------------------------------------------------|
B|-----------------------------------------------------------|
G|-4--4--4--44-4-4-5--5--5--55-7-5-4--4--4--44-4-4-555555555-|
D|-4--4--4--44-4-4-5--5--5--55-7-5-4--4--4--44-4-4-555555555-|
A|-2--2--2--22-2-2-3--3--3--33-5-3-2--2--2--22-2-2-333333333-|
E|-----------------------------------------------------------|

Coda
e|------------------------------------|
B|------------------------------------|
G|------------------------------------|
D|------------------------------------|
A|-53------------3-3333333333333------|
E|-----53--35----1-1111111111111------|

-=Bass=-

Riff 1 (Main Riff)
G|------------------|
D|------------------|
A|-53------------3--|
E|------53--35------|

Riff 2 (Verse Riff)
G|----------------------------------|
D|------------5-7--------------7-5--|
A|-----7----------------7-----------|
E|-0000--0-000------0000--0-000-----|

Riff 3 (Chorus)
G|----------------------------22h55-----------------------------|
D|----------------------22h55-----------------------------------|
A|-2-2-5-2h3p25p3p2-3-3-------------2-2-5-2h3p25p3p2-3-3-3-3-3--|
E|--------------------------------------------------------------|

Riff 4 (Lead)
G|-------------------------------77999-99-977-7797--------------|
D|------------------------557799-------------------99-987-------|
A|-77777--7-77755-77777-7---------------------------------99109-|
E|--------------------------------------------------------------|

G|---------------------------22h55-----------------------|
D|---------------------22h55-----------------------------|
A|-222252h3p25p3p23333-------------222252h3p25p3p233333--|
E|-------------------------------------------------------|

Coda
G|------------------|
D|------------------|
A|-53---------------|
E|------53--35----1-|

Song Pattern:
Riff 1 (x4)
Riff 2 (x4)
Riff 3 (x1)
Riff 1 (x2)
Riff 2 (x4)
Riff 3 (x1)
Riff 1 (x2)
Riff 4 (x1)
Riff 1 (x2)
Riff 2 (x4)
Riff 3 (x1)
Riff 1 (x3)
Coda





MF-B 1998-2017: при цитировании ссылка на сайт Das ist Motorhead обязательна.