Motorhead tabs...
                               War For War

                                Motorhead

Originally released on the "Sacrifice" album

Version 1.0
January 18th, 1998

Transcribed by Matt Javes (matt@redstart.demon.co.uk)

Visit Catch My Smoke - The Motorhead Tab Page
http://www.cs.mcgill.ca/~ktulu/motorhead

Tune down to Eb

. = palm mute

Main Riff/Chorus
e|-------------|-------------|
B|-------------|-------------|
G|-------------|-------------|
D|-------------|-------------|
A|-7-6-5-9-8-7-|-7-6-5-9-8-7-|
E|-5-4-3-7-6-5-|-5-4-3-7-6-5-|

Verse                                End 1,3    End 2    End 4
e|----------------------------------|----------|--------|----------|
B|----------------------------------|----------|--------|----------|
G|----------------------------------|----------|--------|-7-7-7--7-|
D|-2--2-2--2-2--2-2--2-2--2-2--2-2--|-7-7-7--7-|-8-7--5-|-7-7-7--7-|
A|-2--2-2--2-2--2-2--2-2--2-2--2-2--|-7-7-7--7-|-8-7--5-|-5-5-5--5-|
E|-0--0-0--0-0--0-0--0-0--0-0--0-0--|-5-5-5--5-|-6-5--3-|----------|

Pre-Solo
e|---------------|
B|---------------|
G|---------------|
D|---------------|
A|-9-8-7-11-10-9-|
E|-7-6-5-9--8--7-|

Solo Backing A
e|-------------------------|
B|-------------------------|
G|-------------------------|
D|-------------------------|
A|-9-9-9-9-9-9-9-9-9-9-9-9-|
E|-7-7-7-7-7-7-7-7-7-7-7-7-|
   . . . . . . . . . . . .

Solo Backing B
e|---------------------------|
B|---------------------------|
G|---------------------------|
D|---------------------------|
A|-9-12--9-12--9-12--9-12--9-|
E|-7-10--7-10--7-10--7-10--7-|

Solo Backing C
e|--------------------------|
B|--------------------------|
G|--------------------------|
D|--------------------------|
A|-9--9-9-9-9-9-12-9-9-12-9-|
E|-7--7-7-7-7-7-10-7-7-10-7-|
        . . . . .  . . .  .

Solo Backing order: A x3, B x1, A x4, C x3, A x1 (gradually release
muting), B x1.




MF-B 1998-2017: при цитировании ссылка на сайт Das ist Motorhead обязательна.