Motorhead tabs...
Visit Catch My Smoke - The Motorhead Tab Page
http://www.cs.mcgill.ca/~ktulu/motorhead

From: Matt Javes 


                                Traitor

                                Motorhead

Tune down to Eb (half a step)

Main Riff
e|------------------|
B|------------------|
G|------------------|
D|------------------|
A|---7-5-7-5-7------|
E|-0-----------567--|

Chorus
e|--------------------------------------------------|
B|--------------------------------------------------|
G|--------------------------------------------------|
D|--------------------------------------------------|
A|-5---5---5---5---9---9---9---9---9---9---9---9----|
E|-3---3---3---3---7---7---7---7---7---7---7---7----|



MF-B 1998-2017: при цитировании ссылка на сайт Das ist Motorhead обязательна.