Motorhead tabs...
                           Too Late Too Late

                                Motorhead

Originally released on the "Overkill" single.

Version 2.0
March 8th, 1998

Guitar by Matt Javes (matt@redstart.demon.co.uk)
Bass by Dave Death (KaosFrenzy@aol.com)

Visit Catch My Smoke - The Motorhead Tab Page
http://www.cs.mcgill.ca/~ktulu/motorhead

Tune down to Eb.

. = palm mute

Intro
e|------|
B|------|
G|----5-|
D|---5--|
A|-57---|
E|------|

Main Riff
e|------------------|
B|------------------|
G|-----5----------5-|
D|-----5---------5--|
A|-0000--0-000057---|
E|------------------|

Verse                Verse End
e|------------------|------------------|
B|------------------|------------------|
G|----------------5-|------------------|
D|---------------5--|------------------|
A|-00000000000057---|-0000000000000000-|
E|------------------|------------------|
   ............       ................
                     Gradually release palm muting.

Chorus
e|----------------------------------|----------------------------------|
B|----------------------------------|----------------------------------|
G|----------------------------------|----------------------------------|
D|-9-9999995-5555554-4444442-222222-|-9-9999997-7777774-44444444444444-|
A|-7-7777773-3333332-2222220-000000-|-7-7777775-5555552-22222222222222-|
E|----------------------------------|----------------------------------|

------
Here is the bass line for Too Late Too Late from No Remorse.

Intro/Main
G|------------------------------
D|-------------------------------
A|-0000-3-0-0000---------
E|---------------0034-

Verse                          Verse End
G|-------------------|------------------|
D|-------------------|------------------|
A|-000000000000------|-0000000000000000-|
E|--------------0034-|------------------|

Chorus
roots of guitar

Backing for 1st guitar solo
G|------------------|------------------|------------------|--------------------|
D|------------------|------------------|------------------|--------------------|
A|-222222222222-0-1-|-222222222222-0-0-|-22222222222222-0-|-22222222-0-0-0-0-1-|
E|------------------|------------------|------------------|--------------------|

G|------------------|------------------|------------------|------------------|
D|------------------|------------------|------------------|------------------|
A|-222222222222-0-1-|-222222222222-0-0-|-2222222222222222-|-2222222222222222-|
E|------------------|------------------|------------------|------------------|

Backing for 2nd guitar solo:
Main Riff (x4)
Verse (x3)
Verse End

Coda
e|-------------
B|-------------
G|--------5---
D|--------5---
A|-0000--0-
E|-------------

G|--------------
D|--------------
A|-0000-3-0-
E|--------------

Song Pattern
Intro(x2): Bass only, guitar intro at and of 2nd bass line
Main(x4)
Verse(x11)
Verse End
Chorus
Main(x4)
Verse(x7)
Verse End
Chorus
1st guitar solo
Main(x4)
Verse(x7)
Verse End
Chorus
2nd guitar solo
Chorus
Coda

     -also here are corrections to the lyrics:
1st verse:"You find some other john" to "I'm just another john"
2nd verse:"'Cos now the thrill is gone" to "You find another one"
3rd verse:"You're just a feeble con" to "And now the thrill is gone"

                                                      Dave






MF-B 1998-2017: при цитировании ссылка на сайт Das ist Motorhead обязательна.