Motorhead tabs...


                           Too Good To Be True

                                Motorhead

Originally released on the "March Or Die" album

Version 1.0
December 14th, 1997

Transcribed by Matt Javes (matt@redstart.demon.co.uk)
and Gus Siewert (ktulu@cs.mcgill.ca)

Visit Catch My Smoke - The Motorhead Tab Page
http://www.cs.mcgill.ca/~ktulu/motorhead

Tune down to Eb.

 .  = palm mute
/ \ = slide up/down
p   = pull off
( ) = sustained note

Intro
e|-----|------------------------------|
B|-----|------------------------------|
G|-----|------------------------------|
D|-----|------7----7----7----7--5-5-5-|
A|-----|------7----7----7----7--5-5-5-|
E|-/-\-|--5-5----5----5----5----------|
          . .    .    .    .

Bass fill
G|-/9-|(9)-|-9p7-7p5-----|
D|----|----|---------7p5-|
A|----|----|-------------|
E|----|----|-------------|

Main riff
e|-----------------------------------------------|
B|-----------------------------------------------|
G|-----------------------------------------------|
D|-----7----7----7----7-----4----4----4----4-4-4-|
A|-----7----7----7----7-----4----4----4----4-4-4-|
E|-5-5----5----5----5---2-2----2----2----2-------|
   . .    .    .    .   . .    .    .    .

e|-------------------------------------------|
B|-------------------------------------------|
G|---9---99---9--99--7-7---7---7---7---------|
D|---9---99---9--99--7-7---7---7---7--5-4-2--|
A|---7---77---7--77------5---5---5----3-2-0--|
E|-0---0-----0--0----------------------------|
   .   .     .  .        .   .   .

Verse is same as main riff except that you keep playing D's instead of 
the last 3 chords (C B A)

Chorus x2
e|------------------------------------------------|
B|------------------------------------------------|
G|----------------------------------9--99---9--99-|
D|-----7---2-2-22--2-2-22------7----9--99---9--99-|
A|-4---5---0-0-00-00-0-00-04---5----7--77---7--77-|
E|-2-----------------------2-------0--0----0--0---|
                  .       .        .  .    .  .

Pre-Solo
e|----------------|
B|----------------|
G|--9--99---9--99-|
D|--9--99---9--99-|
A|--7--77---7--77-|
E|-0--0----0--0---|
   .  .    .  .

Solo Backing
e|--------------------------------------------------|
B|--------------------------------------------------|
G|--------------------------------------------------|
D|---------7-------2-2-22--2-2-22--2-2-22--2-2-22---|
A|-4-------5-------0-0-00-00-0-00-00-0-00-00-0-00-0-|
E|-2------------------------------------------------|
                          .       .       .       .

cont...
e|------------------------------------------------|
B|------------------------------------------------|
G|------------------9--99---9--99---9--99---9--99-|
D|---------7--------9--99---9--99---9--99---9--99-|
A|-4-------5--------7--77---7--77---7--77---7--77-|
E|-2---------------0--0----0--0----0--0----0--0---|
                   .  .    .  .    .  .    .  .




MF-B 1998-2017: при цитировании ссылка на сайт Das ist Motorhead обязательна.