Motorhead tabs...
Visit Catch My Smoke - The Motorhead Tab Page
http://www.cs.mcgill.ca/~ktulu/motorhead

                                  The Wolf

                                  Motorhead

>From the Rock 'N' Roll album.

Tune down to Eb

Main Riff
e|----------------------------------|
B|----------------------------------|
G|----------------------------------|
D|----------------------------------|
A|-----53---------------------------|
E|-3-5---53--5-xxx3--5-xxx3--5-xxxx-|

Fill Riff (3rd bar of every verse)
e|----------------------------------|
B|----------------------------------|
G|----------------------------------|
D|----------------------------------|
A|-----75---------------------------|
E|-5-7---75--7-xxx5--7-xxx5--7-xxxx-|

Chorus
e|----------------------------|
B|----------------------------|
G|----------------------------|
D|-9------8----7--5--7--------|
A|-7------6----5--3--5--------|
E|----------------------------|

Bit Near End (technical term or what?)
e|--------------------------------------------------------------|
B|--------------------------------------------------------------|
G|--------------------------------------------------------------|
D|-9------8----7--5--9------8----7--5--9------8----7--5--7------|
A|-7------6----5--3--7------6----5--3--7------6----5--3--5------|
E|--------------------------------------------------------------|

-- 
Matt Javes              Everything above represents my opinion only. 
                                Except when I'm lying....

        matt@redstart.demon.co.uk 

                
                





Рекомендуем посетить сайты партнеров:

Реклама на сайте
Реклама куплю участок по минскому шоссе

MF-B 1998-2017: при цитировании ссылка на сайт Das ist Motorhead обязательна.