Motorhead tabs...
                               The Watcher

                                Kilmister

>From the Motorhead album (and probably On Parole too).

Visit Catch My Smoke - The Motorhead Tab Page
http://www.cs.mcgill.ca/~ktulu/motorhead

tabbed by Matt Javes

Version 1.0
June 22th, 1997

Standard tuning.

This is difficult to tab properly, but it's made up of variations
on these themes.

Intro
e|----------------|
B|----------------|
G|----------------|
D|----------------|
A|-7----7-x5-x3/5-|
E|-5----5-x3-x1/3-|

Main A
e|----------------------------------------|
B|----------------------------------------|
G|---------------------------5------------|
D|------------------7-7-7-557-75--5h7p5---|
A|-5/7-777-777-77-7--------------------h7-|
E|-3/5-555-555-55-5-----------------------|
       ..  ..  .

Main B
e|--------------------------------|
B|-------------------6------------|
G|-7--------7-7-5-557-75--5h7p5---|
D|-7-----77-7-7-5-55-----------h7-|
A|-5-----55-----------------------|
E|--------------------------------|

2nd Solo Backing
e|----------------------------------|
B|----------------------------------|
G|----------------------------------|
D|----------------------------------|
A|-7-7777775-5555553-3333335-555555-|
E|-5-5555553-3333331-1111113-333333-|
     ......  ......  ......  ......

-- 
Matt Javes              Everything above represents my opinion only. 
                                Except when I'm lying....

        matt@redstart.demon.co.uk 

                
                




MF-B 1998-2017: при цитировании ссылка на сайт Das ist Motorhead обязательна.