Motorhead tabs...
                              Motorhead

                       The One To Sing The Blues

> From the "1916" album

Version 2.0
Last updated: January 4th, 1998

Transcribed by Gus Siewert (ktulu@cs.mcgill.ca>

Visit Catch My Smoke - The Motorhead Tab Page
http://www.cs.mcgill.ca/~ktulu/motorhead


<5> : artificial harmonic at given fret
/ \ : slide up / down
 ~  : vibrato
b( ): bend to note


Tune down to Eb (half a step)

Bass plays the same thing as guitars unless otherwise mentioned.

Riff 1
  Guitar 1                                (x4)
e|---|------------play this as----------------|------|
B|---|-----------a harmonic 2nd---------------|------|
G|---|------------and 4th times---------------|------|
D|---|(9)-------------<7>---------------------|------|
A|---|-7---9---9-9-9-9----9---9-9-9-9---7--9\-|------|
E|---|----------------------------------------|------|
 |             . . . .        . . . .                |
 |Guitar 2                                           |
e|---|----------------------------------------|------|
B|---|------------play this as----------------|------|
G|---|-----------a harmonic 3rd---------------|------|
D|-x\|-------------time only------------------|------|
A|-x\|----(4)---------<0>---------------------|------|
E|---|-0---2---2-2-2-2----2---2-2-2-2---0--2--|-/17\-|
               . . . .        . . . .

Verse
  Guitar 1                                            (x4) 2nd time    
e|--------------------------------------------------------|with|
B|--------------------------------------------------------|wah-|
G|--------------------------------------------------------|-7\-|
D|--------------------------------------------------------|-7\-|
A|-7---9-----------5--------------------------------------|-5\-|
E|-5---7---7-7-7-7----7---7-7-7-7---5--7--7-7-7-7---5--7~-|----|
 |         . . . .        . . . .         . . . .              |
 |Guitar 2                                                     |
e|--------------------------------------------------------|----|
B|--------------------------------------------------------|----|
G|--------------------------------------------------------|----|
D|--------------------------------------------------------|-7--|
A|-7---9-----------5--------------------------------------|-5--|
E|-5---7---7-7-7-7----7---7-7-7-7---5-<7>-7-7-7-7--<5><7>~|----|
           . . . .        . . . .         . . . .         

Pre-chorus
  Guitar 1
e|----|-------------|------|--------------|
B|----|-------------|------|--------------|
G|----|------7---9--|-play-|-------7---9--|
D|----|7-----7---9--|-verse|-7-----7---9--|
A|----|7-----5---7--|-riff-|-7-----5---7--|
E|----|5------------|------|-5------------|
 |Guitar 2                                |   
e|----|-------------|------|--------------|
B|----|-------------|------|--------------|
G|----|------7---9--|-play-|--------------|
D|----|7-----7---9--|-verse|-7------------|
A|11\9|7-----5---7--|-riff-|-7-----5~--7~-|
E|-9\7|5------------|------|-5------------|

Chorus                                               
  Guitar 1                                            1st  2nd ending
e|--------------------------------------------------|-----|-------|
B|--------------------------------------------------|-----|-------|
G|--------------------------------------------------|-----|-------|
D|-----------------7--------------------------------|-----|-11----|
A|-7---9---9-9-9-9----9---9-9-9-9--7--9--9-9-9-9--7-|-9\--|--9----|
E|--------------------------------------------------|-----|-------|
 |         . . . .        . . . .        . . . .                  |
 |Guitar 2                                                        |
e|--------------------------------------------------|-----|-------|
B|--------------------------------------------------|-----|-------|
G|--------------------------------------------------|-----|-------|
D|-----------------7--------------------------------|-----|-------|
A|-7---9---9-9-9-9----9---9-9-9-9--7--9--9-9-9-9--7-|<9>~-|-9/12\-|
E|--------------------------------------------------|-----|-------|
           . . . .        . . . .        . . . . 

Riff 2 (Guitars 1 & 2)               (x2) 
e|---------------------------------------|------------|
B|---------------------------------------|pickscratch-|
G|---------------------------------------|x\----------|
D|---------------------------------------|x\----------|
A|-7---9-----------5---------------------|------------|
E|-5---7---7-7-7-7----7---7-7-7-7---5--7-|------------|
           . . . .        . . . .       

Verse

Prechorus

Fill over main riff part of 2nd prechorus
e|----------17---------17---------|
B|-17b(19)----17b(19)----17b(19)~-|
G|----|        hold bend        |-|
D|--------------------------------|
A|--------------------------------|
E|--------------------------------|

Chorus

Solo backing
  Guitar 1       (x3)                                                    (x2)   
e|-------------------|-------------------------------------------------------|
B|-------------------|-------------------------------------------------------|
G|-----------7---/9--|-------------------------------------------------------|
D|-9----7----7---/9--|11--11--11111111---11--11111111--11-11--11111111-11-11-|
A|-9----7----5---/7--|-9---9---9-9-9-9----9---9-9-9-9---9--9---9-9-9-9--9--9-|
E|-7----5------------|-------------------------------------------------------|
 |                             . . . .        . . . .          . . . .  
 |Guitar 2       (x3)                                                    (x2)
e|-------------------|-------------------------------------------------------|
B|-------------------|-------------------------------------------------------|
G|-----------7---/9--|-------------------------------------------------------|
D|-9----7----7---/9--|-------------------------------------------------------|
A|-9----7----5---/7--|-4---4---4-4-4-4----4---4-4-4-4---4--4---4-4-4-4--4--4-|
E|-7----5------------|-2---2---2-2-2-2----2---2-2-2-2---2--2---2-2-2-2--2--2-|
                               . . . .        . . . .          . . . .
Bass Fill (towards the end of the first guitar solo)
G|----------------------------9------9--11--11--9--------|
D|---------7------7---9---11-----11----------------11--9-|
A|-9---9-------9-----------------------------------------|
E|-------------------------------------------------------|


Riff 2

Verse

Pre-chorus

Overdub on main riff part of 3nd prechorus
e|-17b(19)~--17-19-17-19~-|
B|------------------------|
G|------------------------|
D|------------------------|
A|------------------------|
E|------------------------|
                
Chorus

Overdub on 3rd chours
e|-15-------|-15-------|
B|-18b(20)~-|-18b(20)~-|
G|----------|----------|
D|----------|----------|
A|----------|----------|
E|----------|----------|

Solo backing (x2) (the second time Guitar 1 plays the chorus riff instead of the muted F#'s)

Riff 2 (one bar only)



MF-B 1998-2017: при цитировании ссылка на сайт Das ist Motorhead обязательна.