Motorhead tabs...
                               THE HAMMER

                               Motorhead

Originally released on the "Ace of Spades" album

Version 1.1
October 30th, 1997

Transcribed by Matt Javes (matt@redstart.demon.co.uk)

Visit Catch My Smoke - The Motorhead Tab Page
http://www.cs.mcgill.ca/~ktulu/motorhead

Tune down to Eb.

/ \ = slide up/down
x\ = pick slide
" = tremelo pick
h/p = hammer on/pull off
b/r = bend/release

Riff A
e|-----------------| Where it say's 'loose', play this with muting
B|-----------------| in a 'laid back' style.
G|-----------------|
D|-9-9-99127-7-777-|
A|-7-7-77105-5-555-|
E|-----------------|

Riff B
e|-------------------|
B|-------------------|
G|-------------------|
D|-4--4--4--7--9--7--|
A|-2--2--2--5--7--5--|
E|-------------------|

Riff C
e|-----------------|
B|-----------------|
G|-----------------|
D|-4--5--6--7-8-9--|
A|-2--3--4--5-6-7--|
E|-----------------|

Riff D              Fill
e|-----------------|-----|
B|-----------------|-----|
G|-----------------|-----|
D|-----------------|-----|
A|-7-7-7-7-7-7-7-7-|-x\--|
E|-5-5-5-5-5-5-5-5-|-----|

Riff E
e|--------------------------------------------|
B|--------------------------------------------|
G|--------------------------------------------|
D|-4---4---4---4------------------------------|
A|-2---2---2---2---5"------------------9\-----|
E|-----------------3"------------------7\-----|
                   
Solo.
e|-------------------------------|----------------------|
B|-------------------------------|----------------------|
G|-------------------------------|----------------------|
D|-7"-9"-5"-4"-7"-9"-5-4-5-4-54--|-------------0h3p0-5b-|
A|-------------------------------|-0-h3p0-5b-0----------|
E|-------------------------------|----------------------|

e|-----------------------------------------------------|
B|-----------------------------------------------------|
G|-------------------------------------------7b7-5-----|
D|-------------0h3p0-5b-------------0h3p0-5b-------765-|
A|-0-h3p0-5b-0----------0-h3p0-5b-0--------------------|
E|-----------------------------------------------------|

Song Structure: Intro:- Riff A x 4
                Verse:- Riff A x 8
                        Riff B x 3
                        Riff C
                        Riff A x 4
                        Riff D x 3
                        Fill
                Verse
                Intro
                Solo
                Verse:- Loose under vocals
                Riff A x 4
                Riff A x 4 :- Loose
                Riff B x 3
                Riff E


-- 
Matt Javes              Everything above represents my opinion only. 
                                Except when I'm lying....

        matt@redstart.demon.co.uk 

                
                



MF-B 1998-2017: при цитировании ссылка на сайт Das ist Motorhead обязательна.