Motorhead tabs...
Visit Catch My Smoke - The Motorhead Tab Page
http://www.cs.mcgill.ca/~ktulu/motorhead

                                Tear Ya Down

                                 Motorhead

>From the Overkill album.

Tune down to Eb. 

Note: This might have been recorded in standard tuning, making
everything 1 fret lower than I've put here, but since everything
else on Overkill seems to be in Eb, I've tabbed this in it as well.

Intro
e|------------------------------|
B|------------------------------|
G|-3-------------3--------------|
D|-3-------------3--------------|
A|-1-------------1--------------|
E|------------------------------|

Main Riff
e|---------------------------------|
B|---------------------------------|
G|-------------------------------6-|
D|-6-------6-------6----------678--|
A|-4-88-8884-88-8884-88-888-68-----|
E|---66-666--66-666--66-6666-------|

Chorus
e|------------------------------------------------------------------|
B|------------------------------------------------------------------|
G|------------------------------------------------------------------|
D|-7777777777777777----------------77777777777777775555555510-10-10-|
A|-555555555555555555555555555555555555555555555555333333338--8--8--|
E|-----------------3333333333333333---------------------------------|

Riff After Solo
e|------------------------------------------------------------------|
B|------------------------------------------------------------------|
G|-------------------------------6----------------------------------|
D|----------------------------678-----------------------------------|
A|--------------------------68--------------------------------------|
E|-6666666666666666666666666------666666666666666666666666666666666-|
   ........................       .................................
Palm Muting gets looser towards the end.


-- 
Matt Javes              Everything above represents my opinion only. 
                                Except when I'm lying....

        matt@redstart.demon.co.uk 

                
                




MF-B 1998-2017: при цитировании ссылка на сайт Das ist Motorhead обязательна.