Motorhead tabs...


                              Talking Head

                                Motorhead

Originally released on the "Bomber" album

Version 1.0
September 25th, 1997

Transcribed by Matt Javes (matt@redstart.demon.co.uk)
Polished by Gus Siewert (ktulu@cs.mcgill.ca)

Visit Catch My Smoke - The Motorhead Tab Page
http://www.cs.mcgill.ca/~ktulu/motorhead

Tune down to Eb.

/ \ = slide up/down
 x  = left hand/percussive mute
 h  = hammer on

Intro Riff
e|------------------------------|
B|------------------------------|
G|------------------------------|
D|------------------------------|
A|------3-------3--------3------|
E|-3h555--53h555--5-3h555-543---|

                                 Use this only for the second 
Main/Verse Riff                  bar of the first verse.
e|------------------------------|----------------------------|
B|------------------------------|----------------------------|
G|------5-------5-------5-------|------5-------5------5-5----|
D|-5h777--75h777--7-5h777-765---|-5h777--75h777--75h7-----75-|
A|------------------------------|----------------------------|
E|------------------------------|----------------------------|

Chorus Riff
e|-----------------------------------------------------------|
B|-----------------------------------------------------------|
G|-------------------------------------------------7-5-------|
D|-3-3/5555/7-7\5--3/5-5-/7777/9--9-7--5-5/7-7-7---7-5-7-5-7-|
A|---------------------------------------3/5-5-5-------7-5-7-|
E|-1-1/3333/5-5\3--1/3-3-/5555/7--7-5--3---------------------|

Guitar Solo backing: 4 times verse, 2 times chorus

Bridge/Bass Solo Backing
e|------------------------------|
B|------------------------------|
G|--------5---------------------| Then play chorus twice
D|-7-x-xxx5-x-xxx7-x-xxx5-------|
A|-7-x-xxx--x-xxx7-x-xxx5-------|
E|------------------------------|

Coda -guitar fades in
e|------------------------------|-------------------------------|
B|------------------------------|------8-------8-------8--------|
G|------------------------------|-7h999--97h999--9-7h999-987----|
D|------------------------------|-------------------------------|
A|------3-------3--------3------|-------------------------------|
E|-3h555--53h555--5-3h555-543---|-------------------------------|

e|---------8-----------8------------8-------|
B|-8h101010--108h101010--10-8h101010-1098---|
G|------------------------------------------|
D|------------------------------------------|
A|------------------------------------------|
E|------------------------------------------|
^repeat this bar and fade out.





MF-B 1998-2017: при цитировании ссылка на сайт Das ist Motorhead обязательна.