Motorhead tabs...
Visit Catch My Smoke - The Motorhead Tab Page
http://www.cs.mcgill.ca/~ktulu/motorhead


                               Tales of Glory

                                 Motorhead

>From the Another Perfect Day album.

Version 1.0
May 17th, 1997

Tune down to Eb.

. = palm mute
~ = vibrato

Main Riff
e|--------------------------------|
B|--------------------------------|
G|--------------2-----------------|
D|-2------------02----------------|
A|-003030-03030--003030-030--0----|
E|-------3-------------3---30-303-|
Mute under vocals.

Chorus
e|--------------------------------------------|
B|--------------------------------------------|
G|--------------------------------------------|
D|-7---------5---------5-5-7---------5--------|
A|-5----5----3----5----3-3-5----5----3--------|
E|------3---------3-------------3-------------|

Bridge
e|-----------------------------------------------------|
B|-----------------------------------------------------|
G|-----------------------------------------------------|
D|------5------3------------3~~---5------3--------5----|
A|-00000--00000--000005-5353---000--00000--000005-3----|
E|-----------------------------------------------------|
   .....  .....  .....         ...  .....  .....

-- 
Matt Javes              Everything above represents my opinion only. 
                                Except when I'm lying....

        matt@redstart.demon.co.uk 

                
                




MF-B 1998-2017: при цитировании ссылка на сайт Das ist Motorhead обязательна.