Motorhead tabs...
                        Stone Deaf in the U.S.A.

                                Motorhead

>From the Rock 'N' Roll album

Visit Catch My Smoke - The Motorhead Tab Page
http://www.cs.mcgill.ca/~ktulu/motorhead

Version 1.0
July 6th, 1997

Transcribed by Matt Javes (matt@redstart.demon.co.uk)

Tune down to Eb.

. = palm mute
x = left hand mute

Main Riff
e|-----------|
B|-----------|
G|----5-5-7--|
D|----5-5-7--|
A|-0-0-0-----|
E|-----------|
   . . .

Chorus (x4)  1st, 2nd, 3rd       4th
e|---------|-------------------|------------------------|
B|---------|-------------------|------------------------|
G|-10--7---|-------------------|------------------------|
D|-10--7---|-------------------|-9-99-99-99-99-99-99-99-|
A|-8---5---|-77-x7-5557-x7-555-|-7-77-77-77-77-77-77-77-|
E|---------|-55-x5-3335-x5-333-|------------------------|

Bass behind 1st Solo
G|--------------|--------------|--------------| 
D|--------------|--------------|--------------|
A|-2-22-22-22-2-|-5-55-55-55-5-|-7-77-77-77-7-|
E|--------------|--------------|--------------|
(This was done on a guitar, so it may not be accurate or should be
played up an octave)

-- 
Matt Javes              Everything above represents my opinion only. 
                                Except when I'm lying....

        matt@redstart.demon.co.uk 

                
                



MF-B 1998-2017: при цитировании ссылка на сайт Das ist Motorhead обязательна.