Motorhead tabs...
                             Stone Dead Forever

                                 Motorhead


>From the "Bomber" album

Visit Catch My Smoke - The Motorhead Tab Page
http://www.cs.mcgill.ca/~ktulu/motorhead

Version 2.0
February 23rd, 1997

Guitar by Matt Javes (matt@redstart.demon.co.uk)
Bass by Dave Death (KaosFrenzy@aol.com)

Tuning: Halfway between D and Eb (down 3/4 of a step).


BASS TAB

Intro
G|------------|-----------|
D|------------|-----------|
A|-7-r-7-r-5--|-7-r-7-5---|
E|-0-r-0-r----|-0-r-0-----|
This riff is played 4 times before the guitar comes in.
Under guitar 3 times

Intro End
G|-------------------------|
D|-------------------------|
A|-10-101010---------------|
E|-----------------5-5-5-5-|

Verse:same as Intro (3 times)

Verse End 1
G|----------------------------|
D|----------------------------|
A|-10-1010-101010-12-12-12-12-|
E|----------------------------|

Verse End 2:Roots of guitar

Chorus and Chorus Ends: Roots of guitar

Bass Solo/Guitar solo rhythm backing:
G|---------------------------------------------------|
D|---------------------------------------------------|
A|-7777777777777777-10101010101010101010101010101010-|
E|---------------------------------------------------|

G|---------------------------------------------------|
D|---------------------------------------------------|
A|-12121212121212121212121212121212-3-33-33-5-55-55--|
E|---------------------------------------------------|

This last riff plays speeds up about halfway through the last guitar solo.
Listen to the song for exact timing.

GUITAR TAB

Intro
e|------------------------------------------|
B|------------------------------------------|
G|------------------------------------------|
D|-9--------7-------5-------12-121212-------|
A|-7--------5-------3-------10-101010-7-----|
E|-0----------------------------------5-----|

Verse                                
e|----------------------------------|
B|----------------------------------|
G|----------------------------------|
D|-9-9-7-9----9-9-7-9----9-9-7-9----|
A|-7-7-5-7----7-7-5-7----7-7-5-7----|
E|----------------------------------|

Verse End 1                Verse End 2
e|------------------------|------------------------|
B|------------------------|------------------------|
G|------------------------|------------------------|
D|-12-1212-121212---------|------------------------|
A|-10-1010-101010-7-7-7-7-|-10-1010-101010-9-9-9-9-|
E|----------------5-5-5-5-|-8--8-8--8-8-8--7-7-7-7-|

Chorus
e|----------------------------------|
B|----------------------------------|
G|----------------------------------|
D|---3---3---3---3---5---5---5---5--|
A|---3---3---3---3---5---5---5---5--|
E|-55-555-555-555-577-777-777-777-7-|

Chorus End 1
e|------------------------------------------------------------------|
B|------------------------------------------------------------------|
G|------------------------------------------------------------------|
D|-1212121212121212121212121212121211111111111111111111111111111111-|
A|-101010101010101010101010101010109-9-9-9-9-9-9-9-9-9-9-9-9-9-9-9--|
E|------------------------------------------------------------------|

Chorus End 2
e|------------------------------------------|
B|------------------------------------------|
G|------------------------------------------|
D|-121212121212121211111111101010109--------|
A|-10101010101010109-9-9-9-8-8-8-8-7--------|
E|------------------------------------------|

Solo
e|-----------------------------------|
B|-----------------------------------|
G|-----------------------------------|
D|-9-------12-------14-------5---7---|
A|-7-------10-------12-------3---5---|
E|-----------------------------------|
The precise rhythm for this varies, and I can't be bothered to
type out the different variations on it (3 I think), so I've
given the chords and a rough indication of the timing and if you
want to play it you can listen to the song.





                
                



MF-B 1998-2017: при цитировании ссылка на сайт Das ist Motorhead обязательна.