Motorhead tabs...
Visit Catch My Smoke - The Motorhead Tab Page
http://www.cs.mcgill.ca/~ktulu/motorhead

                               Steal Your Face

                                 Motorhead

>From the No Remorse album.

Tune down to Eb.

Intro
e|-13p12p11---------------------------------------------------------|
B|---------13p12p11----------------13p11p10-------------------------|
G|-----------------12p11p10----------------12p11p10-----------------|
D|-------------------------12p11p10----------------12p11p10---------|
A|---------------------------------------------------------12p11p10-|
E|------------------------------------------------------------------|

e|------------------------------------------------------------------|
B|---------------------------------------------------------11h12h13-|
G|-------------------------10h11h12----------------10h11h12---------|
D|-----------------10h11h12----------------10h11h12-----------------|
A|---------10h11h12----------------10h11h12-------------------------|
E|-10h11h12---------------------------------------------------------|

Main Riff
e|---------------------------------|
B|---------------------------------|
G|---------------------------------|
D|-----9999----9999----9999----9-7-|
A|-00007777000077770000777700007-5-|
E|---------------------------------|

Chorus
e|------------------------|----------------------------------------|
B|-play-three-times-------|-play-once------------------------------|
G|------------------------|----------------------------------------|
D|-5--7--2222222222222222-|-5--7--99999999999999999999999999999999-|
A|-3--5--0000000000000000-|-3--5--77777777777777777777777777777777-|
E|------------------------|----------------------------------------|

Solo Backing
e|----------------------------------|-----------|
B|----------------------------------|-----------|
G|-55555555555555555555555555555555-|-Main-Riff-|
D|-33333333333333333333333333333333-|-----------|
A|----------------------------------|-----------|
E|----------------------------------|-----------|

-- 
Matt Javes              Everything above represents my opinion only. 
                                Except when I'm lying....

        matt@redstart.demon.co.uk 

                
                




MF-B 1998-2017: при цитировании ссылка на сайт Das ist Motorhead обязательна.