Motorhead tabs...

                                Stay Clean

                                Motorhead

>From the Overkill album.

Version 2.0
January 21st, 1998

Guitar by Matt Javes (matt@redstart.demon.co.uk)
Bass solo (bars 6, 7) by Dave Death (KaosFrenzy@aol.com)
Guitar prechorus, bass rhythm and solo (bars 1,2,3,4,5,8) by Gus Siewert (ktulu@cs.mcgill.ca)

Visit Catch My Smoke - The Motorhead Tab Page
http://www.cs.mcgill.ca/~ktulu/motorhead

h : hammer on
p : pull off
/ : slide up
\ : slide down
x : rest

Tune down to Eb

Main Riff/Chorus
  Guitar
e|----------------------------|
B|-------5-------------5------|
G|-------5-------------5------|
D|-7-p5--5---7-5-7-p5--5--7-5-|
A|-----h7------------h7-------|
E|----------------------------|
 |Bass                        |
G|----------------------------|
D|-7-----7---7-5-7-----7--7-5-|
A|-0---x-0-------0---x-0------|
E|----------------------------|

Verse w/slight wah effect 
e|---------------------------|
B|---------------------------|
G|-------5------------5------|
D|-7-p5-----7-5-7-p5-----7-5-|
A|-----h7-----------h7-------|
E|---------------------------|
Bass: As Main Riff (possibly with palm muting)

1st Pre-Chorus
e|--------------------------------------------------|
B|--------------------------------------------------|
G|--------------------------------------------------|
D|-9--9--9-9---------------------------7-7-7-7-7--5-|
A|-7--7--7-7-----5--------------7~-----5-5-5-5-5--3-|
E|-0--0--0-0-5-7---3-----2--3-0---------------------|
 |Bass                                              |
G|--------------------------------------------------|
D|--------------------------------------------------|
A|-7--7--7-7-----5-10-10-9-10-7--7-7--5-5-5-5-5--3--|
E|-----------5-7------------------------------------|

2nd Pre-Chorus
e|---------------------------------------------------|
B|---------------------------------------------------|
G|---------------------------------------------------|
D|-9--9--9-9-------5-----4--5-----------7-7-7-7-7--5-|
A|-7--7--7-7-----5---------------7~-----5-5-5-5-5--3-|
E|-0--0--0-0-5-7--------------0----------------------|
 |Bass                                               |
G|---------------------------------------------------|
D|---------------------------------------------------|
A|-7--7--7-7-----5-10-10-9-10-7--7-7--5-5-5-5-5--3---|
E|-----------5-7-------------------------------------|

Bass Solo Backing
e|-------------------------------|
B|-------------------------------|
G|-------------------------------|
D|-9--9--9-9-121212-12-12-7--7-7-|
A|-7--7--7-7-101010-10-10-5--5-5-|
E|-------------------------------|

Bass solo
G|-------------------------------|--------------------------------|
D|---------------5-777-7---7-7-7-|-----5-6h7p6-5-7-5-5-5-7--7-7-7-|
A|-7--7-7--7-7-7-------5---5-5-5-|-7-7-------------------5--5-5-5-|
E|-------------------------------|--------------------------------|

G|---------------------------------|---------------------------------|
D|------5---5-7/9\7-5-777-7---7-7-7|------5---5-7/9\7-5-777-7---7-7-7|
A|-7-7----7---------------5---5-5-5|-7-7----7---------------5---5-5-5|
E|---------------------------------|---------------------------------|

G|---------------7---7-8-9----|-7-9-9-11-11-12-12-11-12-14-14-14-12-12-11-11--|
D|-----5-6-7-8-9---9----------|----------------------------------------------|
A|-7-7------------------------|----------------------------------------------|
E|----------------------------|----------------------------------------------|

G|-12-12-14-14-12-12-11-11-12-14-12-11-12-1111-12-11--11-999-11-999-|
D|------------------------------------------------------------------|
A|------------------------------------------------------------------|
E|------------------------------------------------------------------|

G|-9--7---------------------|
D|-------9--8--7--5----5--7-|
A|------------------7-------|
E|--------------------------|


Guitar Solo Backing: Main Riff followed by Coda

Coda
e|---------------------------------------------|
B|---------------------------------------------|
G|---------------------------------------------|
D|-9--9--9-9----------------------7-7-7-7-7--5-|
A|-7--7--7-7-----5----------7~----5-5-5-5-5--3-|
E|-0--0--0-0-5-7---3-2-3-0---------------------|

e|------------------------------------------------|
B|------------------------------------------------|
G|-----------------------------2---------------2--|
D|-7-7-7-7-7--5--7-7-7-7-7--5--2---------------2--|
A|-5-5-5-5-5--3--5-5-5-5-5--3--0---------------0--|
E|------------------------------------------------|




MF-B 1998-2017: при цитировании ссылка на сайт Das ist Motorhead обязательна.