Motorhead tabs...

                                  Stand

                                Motorhead

>From the March Or Die album.

Version 1.0
Last updated: July 28th, 1997

Transcribed by: Matt Javes (matt@redstart.demon.co.uk)

Visit Catch My Smoke - The Motorhead Tab Page
http://www.cs.mcgill.ca/~ktulu/motorhead

. = palm mute
/\ = slide up/down

Tuning: Eb

Intro
e|-----------------------------------------|
B|-----------------------------------------|
G|-7-7-------7-7---------------------------|
D|-7-7-------7-7-------7-7-------5-5-------|
A|-5-5-------5-5-------7-7-------5-5-------|
E|---------------------5-5-------3-3-------|

Main Riff  A            B
e|--------------------|--------------------|
B|---8--7--8--7--7-7\-|---6--5--6--5--5-5\-|
G|---7--7--7--7--7-7\-|---5--5--5--5--5-5\-|
D|-00--0--0--0--------|-00--0--0--0--------|
A|--------------------|--------------------|
E|--------------------|--------------------|
   ..  .  .  .          ..  .  .  .

Verse played over Main Riff (pattern AABA)
e|---------------------------------|
B|---------------------------------|
G|-7-------7-------5-------7-------|
D|-7-------7-------5-------7-------|
A|-5-------5-------3-------5-------|
E|---------------------------------|

Chorus        x3                 x1 
e|-----------------|------------------|
B|-----------------|------------------|
G|-2---5---7-------|-2---5---12-------|
D|-2---5---7-------|-2---5---12-------|
A|-0---3---5-------|-0---3---10-------|
E|-----------------|------------------|
The second guitar plays section A of the Main Riff under the D chord
(x577xx).

Solo Backing: The rhythm below x3, the fill x1, then the chorus

Solo Rhythm
e|--------------------------------------------------|
B|--------------------------------------------------|
G|-111111111111111111111111111111119999999999999999-|
D|-111111111111111111111111111111119999999999999999-|
A|-9-9-9-9-9-9-9-9-9-9-9-9-9-9-9-9-7777777777777777-|
E|--------------------------------------------------|

Rhythm Fill
e|------------------------------------------------------------------|
B|------------------------------------------------------------------|
G|-1111111111111111111111111111111112121212121212121414141414141414-|
D|-1111111111111111111111111111111112121212121212121414141414141414-|
A|-9-9-9-9-9-9-9-9-9-9-9-9-9-9-9-9-10101010101010101212121212121212-|
E|------------------------------------------------------------------|

Coda
e|------|
B|------|
G|-7-7\-|
D|-7-7\-|
A|-5-5\-|
E|------|

-- 
Matt Javes              Everything above represents my opinion only. 
                                Except when I'm lying....

        matt@redstart.demon.co.uk 

                
                



MF-B 1998-2017: при цитировании ссылка на сайт Das ist Motorhead обязательна.