Motorhead tabs...

                               Speedfreak

                               Motorhead

Originally released on the "Iron Fist" album

Version 1.0
September 28th, 1997

Transcribed by Matt Javes (matt@redstart.demon.co.uk)

Visit Catch My Smoke - The Motorhead Tab Page
http://www.cs.mcgill.ca/~ktulu/motorhead

Tune down to Eb.

/ \ = slide up/down
~ = vibrato
. = palm mute

Main Riff
  Guitar
e|-----------------|-----------------|
B|-----------------|-----------------|
G|-12--------------|-9\--------------|
D|-12--------------|-9\--------------|
A|-10--------------|-7\--------------|
E|-----------------|-----------------|
 |Bass                               |
G|-----------------|-----------------|
D|-----------------|-----------------|
A|-----------------|-----------------|
E|-3-03-0003-3-300-|-3-03-0003-3-300-|

Fill 1 -over Main Riff at start
e|-----------------|-----------------|
B|-----------------|-/15-14-12-14-12~|
G|-12--------------|-/15-14-12-14-12~|
D|-12--------------|-----------------|
A|-10--------------|-----------------|
E|-----------------|-----------------|

Verse
  Guitar
e|------------------------------------------------------------------|
B|------------------------------------------------------------------|
G|------------------------------------------------------------------|
D|------------------------------------------------------------------|
A|-9-9-------------9-9-------------7-7-------------7-7--------------|
E|-7-7-------------7-7-------------5-5-------------5-5--------------|
 |Bass                                                              |
G|------------------------------------------------------------------|
D|------------------------------------------------------------------|
A|------------------------------------------------------------------|
E|-7-77-7777-77-7777-77-7777-77-7775-55-5555-55-5555-55-5555-55-555-|

Chorus -Bass plays root notes
e|------------------------------------------------------------------|
B|------------------------------------------------------------------|
G|------------------------------------------------------------------|
D|------------------------------------------------------------------|
A|-5-55-5557-77-7775-55-5557-77-7775-55-5557--5--3-3333333333333333-|
E|-3-33-3335-55-5553-33-3335-55-5553-33-3335--3--1-1111111111111111-|
                                                   ................
e|----------------|
B|----------------|
G|----------------|
D|----------------|
A|-33333333333333-|
E|-11111111111111-|
   ..............

Fill 2 -over Main Riff after chorus
e|-12---12---------|-----------------|
B|-15b--15b~~~~----|-/15-14-12-14-12~|
G|-----------------|-/15-14-12-14-12~|
D|-----------------|-----------------|
A|-----------------|-----------------|
E|-----------------|-----------------|

Solo Backing -Bass strums root notes in similar pattern to verse
e|-----|-----|-----|
B|-----|-----|-----|
G|-----|-----|-----|
D|-----|-----|-----|
A|-4-4-|-7-7-|-9-9-|
E|-2-2-|-5-5-|-7-7-|

Fill 3 -over Main Riff immediately after solo
e|-----------------|-12-10----------10------------|
B|-12---12---------|-------12-10-12----12-10------|
G|-14b--14b~~~-----|-------------------------12-9-|
D|-----------------|------------------------------|
A|-----------------|------------------------------|
E|-----------------|------------------------------|

e|-----------------|-----------------|
B|-12---12---------|-/15-14-12-14-12~|
G|-14b--14b~~~-----|-/15-14-12-14-12~|
D|-----------------|-----------------|
A|-----------------|-----------------|
E|-----------------|-----------------|


Start of Outro Solo
e|-12---12---------|-12-10----------10------------|
B|-15b--15b~~~~----|-------12-10-12----12-10------|
G|-----------------|-------------------------12-9-|
D|-----------------|------------------------------|
A|-----------------|------------------------------|
E|-----------------|------------------------------|



MF-B 1998-2017: при цитировании ссылка на сайт Das ist Motorhead обязательна.