Motorhead tabs...
                               Snake Bite Love

                               Motorhead

*Intro:
D|-2-3-3-3--3-3-3-|
A|-2-3-3-3--3-3-3-|
E|-0-1-1-1--1-1-1-|
  
*Basic part:
  ...In the zoo, in the zoo
G|-2--2-2-2-2-2-2-5-5-4-2--2-5-2-|
D|-2--2-2-2-2-2-2-5-5-4-2--2-5-2-|
A|-0--0-0-0-0-0-0----------------|x2
E|-------------------------------|
  ...I don't want to see the lions
G|----------------2-2-2----------|
D|-4--4-4-4-4-4-4-2-2-2-4--4-4-4-|
A|-4--4-4-4-4-4-4-0-0-0-4--4-4-4-|x2
E|-2--2-2-2-2-2-2-------2--2-2-2-|

*amm...ah!*

*Chorus:
  ...Snake hips boy, gonna lay you down
G|-7--7--3-|
D|-7--7--3-|
A|-5--5--1-|x...
E|---------|
 
  ...Don't tread on him when he's around                             
                              (===========1===========)(============2===============)
D|-7--7-7-7-7-7--5--5-5-5-5-5-----3-----------3-------||----3-----------------------||
A|-7--7-7-7-7-7--5--5-5-5-5-5--\5----5-3-4-5----5-3-5-||-\5----5-3-4-5--------------||
E|-5--5-5-5-5-5--3--3-3-3-3-3-------------------------||----------------3-4-5-1--2-3||

(just try impovise, where is "(==1==) (==2==)" in G(3\5 fret)
  
  ...snake bite love
D|-3--3-3-3-3-3-3--3-x-3-x-3--5--5-5-5-5-5-5--5-x-5-x-5-|
A|-3--3-3-3-3-3-3--3-x-3-x-3--5--5-5-5-5-5-5--5-x-5-x-5-|
E|-1--1-1-1-1-1-1--1-x-1-x-1--3--3-3-3-3-3-3--3-x-3-x-3-|

*rythm pre-solo\solo:
  (x)                  (F#)   
D|-6-x-x-x-3--5--6-5-||-x-x-x-x-6--5--3-|
A|-6-x-x-x-3--5--6-5-||-x-x-x-x-6--5--3-|
E|-4-x-x-x-1--3--4-3-||-x-x-x-x-4--3--1-|
 
 (x) mean that u must... aah! forget how it's named. just touching r strings on that chord or note. BLOODY HELL! palm muting!)
...and! F# it's like r tune is standart, but songs in Eb etc. i just marking for easily.
Hope my work was'n be stolen by some taffer)
e-mail me: maksdoshker@ukr.net
           maksdoshker@gmail.com



MF-B 1998-2017: при цитировании ссылка на сайт Das ist Motorhead обязательна.