Motorhead tabs...
Visit Catch My Smoke - The Motorhead Tab Page
http://www.cs.mcgill.ca/~ktulu/motorhead

                                Snaggletooth

                                 Motorhead

>From the No Remorse album.

Tune down to Eb

Verse
e|------------------------------------|
B|--------3--------3---------3---3-6--|
G|--------3--------3---------3---3-6--|
D|------------------------------------|
A|------------------------------------|
E|-3-3-333----3-333-----3-333---3-----|

Chorus
e|-------------------------------------------------|
B|-------------------------------------------------|
G|-------------------------------------------------|
D|-7---3---5-------7---3---5-------7---3---5-------|
A|-5---1---3-------5---1---3-------5---1---3-------|
E|-------------------------------------------------|

e|-----------------------------------|
B|-----------------------------------|
G|-----------------------------------|
D|-7---3-----------------------------|
A|-5---1---3333333333333333333333333-|
E|---------1111111111111111111111111-|
           .........................


-- 
Matt Javes              Everything above represents my opinion only. 
                                Except when I'm lying....

        matt@redstart.demon.co.uk 

                
                




MF-B 1998-2017: при цитировании ссылка на сайт Das ist Motorhead обязательна.