Motorhead tabs...
                              Shut It Down

                               Motorhead

Originally released on the "Iron Fist" album

Version 1.0
September 28th, 1997

Transcribed by Matt Javes (matt@redstart.demon.co.uk)

Visit Catch My Smoke - The Motorhead Tab Page
http://www.cs.mcgill.ca/~ktulu/motorhead

Tune down to Eb.

/ \ = slide up/down

Intro Riff
e|---------------------------|
B|---------------------------|
G|-5-------------------------|
D|-5--7-5-7------------------|
A|--------------3-------3----|
E|-----------5----5-3-5---5--|

Verse Riff
e|---------------------------|
B|---------------------------|
G|-5------------5-------5----|
D|-5--7-5-7--7----7-5-7---7--|
A|---------------------------|
E|---------------------------|

Pre-Chorus      (1st,3rd,4th)                      (2nd)
e|--------------------------|--------------------------|
B|--------------------------|--------------------------|
G|--------------------6-8-8-|--------------------6-8-6-|
D|--------------------6-8-8-|--------------------6-8-6-|
A|-6/8--8--8-8--8-8-8-------|-6/8--8--8-8--8-8-8-------|
E|-4/6--6--6-6--6-6-6-------|-4/6--6--6-6--6-6-6-------|

Chorus
e|--------------------------|
B|--------------------------|
G|--------------------7-9-9-|
D|-7/9--9--9-9--9-9-9-5-7-7-|
A|-5/7--7--7-7--7-7-7-------|
E|--------------------------|

Solo Backing
e|----------------------|----------------------|
B|----------------------|----------------------|
G|----------------------|----------------------|
D|-5555555555555555-----|-7777777777777777-----|
A|-3333333333333333etc.-|-5555555555555555etc.-|
E|----------------------|----------------------|

Coda
e|--------------------------------------------------|
B|-5------------5-------5---7-----------7-------7---|
G|-5--7-5-7--7----7-5-7---7-7--9-7-9--9---9-7-9---9-|
D|--------------------------------------------------|
A|--------------------------------------------------|
E|--------------------------------------------------|

e|---------------------------------------------------------------------|
B|---------------------------------------------------------------------|
G|-8--------------8---------8----10---------------10----------10----12-|
D|-8--10-8-10--10---10-8-10---10-10--12-10-12--12----12-10-12----12-12-|
A|---------------------------------------------------------------------|
E|---------------------------------------------------------------------|



MF-B 1998-2017: при цитировании ссылка на сайт Das ist Motorhead обязательна.