Motorhead tabs...
                        Shoot You In the Back

                              Motorhead

Originally released on the "Ace of Spades" album

Version 1.1
December 18th, 1997

Guitar by Matt Javes (matt@redstart.demon.co.uk)
Bass by Gus Siewert (ktulu@cs.mcgill.ca)

Visit Catch My Smoke - The Motorhead Tab Page
http://www.cs.mcgill.ca/~ktulu/motorhead


~ : vibrato

Tune down to Eb (half a step)

Intro
e|---------------------------|---------------------------|
B|---------------------------|---------------------------|
G|--------------------5-7-5--|--------------------5-7-5--|
D|-----7~----7~----7~-5-7-5--|-----7~----7~----7~-5-7-5--|
A|-0000--0000--0000----------|-0000--0000--0000----------|
E|---------------------------|---------------------------|

G|---------------------------|---------------------------|
D|---------------------------|-7-------------------------|
A|--------------------3-5-3--|-0------------------3-5-3--|
E|---------------------------|---------------------------|

Verse
  Guitar
e|-------------------|
B|-------------------|
G|------5-7----------|
D|------5-7------5-7-|
A|-0000-----0000-----|
E|-------------------|
 |Bass
G|-------------------|
D|-------------------|
A|-0000-3-5-0000-000-|
E|-------------------|

Chorus
   Guitar
e|---------------------------------|-------------------------------|
B|--play-this-bit-three-times------|-------------------------------|
G|---------------------------------|-------------------------------|
D|-5/7-7-7-7-7-7-7-7-7-7-7-7-7-7-5-|-5/7-7-7-7-7-7-7-9-9-9-9-9--9\-|
A|-3/5-5-5-5-5-5-5-5-5-5-5-5-5-5-3-|-3/5-5-5-5-5-5-5-7-7-7-7-7--7\-|
E|---------------------------------|-------------------------------|
 | Bass
G|---------------------------------|-------------------------------|
D|---------------------------------|-------------------------------|
A|-3/5-5-5-5-5-5-5-5-5-5-5-5-3-5-3-|-3/5-5-5-5-5-5-5-7-7-7-7-7--7\-|
E|---------------------------------|-------------------------------|




MF-B 1998-2017: при цитировании ссылка на сайт Das ist Motorhead обязательна.