Motorhead tabs...
                                  Shine                             

                                Motorhead

Originally released on the "Another Perfect Day" album

Version 1.0
March 23rd, 1998

Transcribed by Matt Javes (matt@redstart.demon.co.uk)

Visit Catch My Smoke - The Motorhead Tab Page
        http://www.cs.mcgill.ca/~ktulu/motorhead

. = palm mute
~ = vibrato

Tune down to Eb (down half a step)

Intro Pt.A & Rhythm Fill
e|-----------------------------------|
B|-----------------------------------|
G|-----------------------------------|
D|-2-3-4-5-4-5-6-7-6-7-8-9-8-9-10-11-|
A|-0-1-2-3-2-3-4-5-4-5-6-7-6-7-8--9--|
E|-----------------------------------|

Intro Pt.B
e|-------------------------------------------------------------------------------------|
B|-------------------------------------------------------------------------------------|
G|-------------------------------------------------------------------------------------|
D|-----7~-5-7-----7~-5-7-----7~-5-7-----7~-5-7-----7~-5-7-----7~-5-7-----7~-5-7-10--9--|
A|-0-0--------0-0--------0-0--------0-0--------0-0--------0-0--------0-0--------8---7--|
E|-------------------------------------------------------------------------------------|
   . .        . .        . .        . .        . .        . .        . .

Verse: Ax4, Bx2, Ax2, Cx1, Ax2
  Section A    Section B    Section C
e|------------|------------|-------------|
B|------------|------------|-------------|
G|------------|-----7~-5-7-|-9-9---7-7---|
D|-----7~-5-7-|-0-0--------|-9-9---7-7---|
A|-0-0--------|------------|-7-7---5-5---|
E|------------|------------|-------------|
   . .          . .

Chorus: A B A B A C
  Section A         Section B         Section C
e|-----------------|-----------------|--------------------|
B|-----------------|-----------------|----------------5---|
G|-----------------|-----------------|-9-7-----5-----5----|
D|---77-77---77-77-|---22-22---22-22-|-9-7---5-5----5-----|
A|-0-55-55-0-55-55-|-0-00-00-0-00-00-|-7-5---5-3---3------|
E|-----------------|-----------------|-------3------------|
   .       .         .       .                     ^This last chord is sweep picked

Post Chorus
e|-----------------------------------------|
B|-----------------------------------------|
G|-----------------------------------------|
D|-----7~-5-7-----7~-5-7-----7~-5-7-10--9--|
A|-0-0--------0-0--------0-0--------8---7--|
E|-----------------------------------------|
   . .        . .        . .



MF-B 1998-2017: при цитировании ссылка на сайт Das ist Motorhead обязательна.