Motorhead tabs...
                           Sharphooter

                            Motorhead

>Originally released on the "Bomber" album

Version 1.1
September 3rd, 1997

Transcribed by Gus Siewert (ktulu@cs.mcgill.ca)
Corrections by Matt Javes (matt@redstart.demon.co.uk)

Visit Catch My Smoke - The Motorhead Tab Page
http://www.cs.mcgill.ca/~ktulu/motorhead

. : palm muting
/ : slide up
\ : slide down
h : hammer-on
p : pull-off
tr: trill

Tuning: Halfway between D and Eb (down 3/4 of a step).

Intro
e|-----------|-----------|-----------|-----------|
B|-----------|-----------|-----------|-----------|
G|-----------|-----------|-----------|-----------|
D|-------5---|-------5---|-------5---|-------5---|
A|-----5---5-|-----5---5-|-----5---5-|-----5---5-|
E|-5-7-------|-5-7-------|-5-7-------|-5-7-------|
   . .         . .         . .         . .

Verse
e|-----------|-----------|-----------|-----------|
B|-----------|-----------|-----------|-----------|
G|-----------|-----------|-----------|-----------|
D|-7/9--9-99-|-7/9--9-99-|-7/9--9-99-|-------5---|
A|-5/7--7-77-|-5/7--7-77-|-5/7--7-77-|-----5---5-|
E|-----------|-----------|-----------|-5-7-------|
                                       . .
Prechorus
e|-----------------------|-----------------------|
B|-----------------------|-----------------------|
G|--------------------tr-|--------------------tr-|
D|-111111111111119/11-78-|-111111111111119/11-78-|
A|-9-9-9-9-9-9-9-7/9-----|-9-9-9-9-9-9-9-7/9-----|
E|-----------------------|-----------------------|

Chorus
e|---------------------------------|
B|---------------------------------|
G|-/99997777999977779999777799999\-|
D|-/77775555777755557777555577777\-|
A|---------------------------------|
E|---------------------------------|

Solo backing is made up of verse x4, prechorus and chorus


-- 
Matt Javes              Everything above represents my opinion only. 
                                Except when I'm lying....

        matt@redstart.demon.co.uk 

                
                



MF-B 1998-2017: при цитировании ссылка на сайт Das ist Motorhead обязательна.