Motorhead tabs...
                             Shake the World

                                Motorhead

>From the Overnight Sensation album.

Visit Catch My Smoke - The Motorhead Tab Page
http://www.cs.mcgill.ca/~ktulu/motorhead

Tabbed by Matt Javes & Gus Siewert

Version 1.1
June 16th, 1997

Tune down to Eb.

< > = artificial harmonic
~ = vibrato

Main Riff
e|---------------------------------|----------------------------------|
B|---------------------------------|----------------------------------|
G|---------------------------------|----------------------------------|
D|---------------------------------|----------------------------------|
A|-222-444-555-----777-----444-----|-222-444-555-----777--------------|
E|-------------222-----555-----222-|-------------222-----555-111-<2>~-|

Verse
e|------------------------|--------------------------|
B|------------------------|--------------------------|
G|------------------------|--------------------------|
D|-4-44-44-44-44-44-4-----|-4-44-44-44-44-44-442-----|
A|-2-22-22-22-22-22-22-24-|-2-22-22-22-22-22-2204242-|
E|-------------------0-02-|---------------------2020-|

Fill
e|--------|
B|--------|
G|--------|
D|-42-----|
A|-204242-|
E|---2020-|

Bridge   
e|-----------------------------------------|-------------------|
B|--------Section-A------------------------|-------------------|
G|-5---------------------------------------|-5-----9--9--9--9--|
D|-5-----4<0><2><4><4p2><0>4<0><2><4><4p2>-|-3-----10-10-10-10-|
A|-3-----2-----------------2---------------|-3-----------------|
E|-----------------------------------------|-------------------|

e|---------|--------------------------------------------------|
B|---------|--------------------------------------------------|
G|-Repeat--|-2-22-22-22-22-22-22-22-22-22-22-22-22-22-22-22-2-|
D|-Section-|-2-22-22-22-22-22-22-22-22-22-22-22-22-22-22-22-2-|
A|----A----|-0-00-00-00-00-00-00-00-00-00-00-00-00-00-00-00-0-|
E|---------|--------------------------------------------------|

Coda
e|---------------------------------|-------------------------|
B|---------------------------------|-------------------------|
G|---------------------------------|-------------------------|
D|---------------------------------|-------------------------|
A|-222-444-555-----777-----444-----|-222-444-555-----7~------| 
E|-------------222-----555-----222-|-------------222---------|
                                                        Nothing can go 
                                                                wrong...





MF-B 1998-2017: при цитировании ссылка на сайт Das ist Motorhead обязательна.