Motorhead tabs...

                              Rock 'N' Roll

                                Motorhead

>From the "Rock 'N' Roll" album

Visit Catch My Smoke - The Motorhead Tab Page
http://www.cs.mcgill.ca/~ktulu/motorhead

Version 2.0
July 16th, 1997

Transcribed by Gus Siewert (ktulu@cs.mcgill.ca)

b(): bend to note in brackets
h  : hammer-on
p  : pull-off
/  : slide up
\  : slide down
~  : vibrato
.  : palm muting

Tune down to Eb.

Intro (x4)      Verse  (x2)
e|-----------| |-----------|
B|-----------| |-----------|
G|-7-9-------| |-7-9-------|
D|-7-9-------| |-7-9-------|
A|-5-7-------| |-5-7-------|
E|-----------| |-----------|

Pre-chorus
e|-----------|-----------|-----------|-----------|
B|-----------|-----------|-----------|-----------|
G|-9---------|-----------|-5---------|-7---------|
D|-9---------|-7---------|-5---------|-7---------|
A|-7---------|-7---------|-3---------|-5---------|
E|-----------|-5---------|-----------|-----------|

Chorus (x2)                                        Last time 
e|-----------|-----------|-----------|-----------| |-let---|
B|-----------|-----------|-----------|-----------| |-ring--|
G|-----------|-----------|-----------|-----------| |-------|
D|-99-999-99-|-----------|-55-555-55-|-77-777-77-| |-7-----|
A|-77-777-77-|-77-777-77-|-33-333-33-|-55-555-55-| |-7-----|
E|-----------|-55-555-55-|-----------|-----------| |-5-----|



1st Solo (backing is composed of verse/prechorus/chorus)

e|---------------------------------------------|
B|---------------------------------------------|
G|----7---7---7---7---7---7---7---7---7-<9>~-\-|
D|-8h9-8h9-8h9-8h9-8h9-8h9-8h9-8h9-8h9---------|
A|---------------------------------------------|
E|---------------------------------------------|

e|---------------------------------------------|
B|-/-10b(12)----r(10)-8------------------------|
G|----------------------9---7------------------|
D|----------------------------9---7-5---7-5----|
A|------------------------------------------7~-|
E|---------------------------------------------|

e|-------------------------------------------------------------|
B|-------------------------------------------------------------|
G|-----------12p9-12p9------12p9-12p9------12p9------12p9-12p9-|
D|-12p9-12p9-----------12p9-----------12p9------12p9-----------|
A|-------------------------------------------------------------|
E|-------------------------------------------------------------|

e|-------------------------------------------------------------|
B|-------------------------------------------------------------|
G|------12p9-12p9------12p9------12p9-12p9------12p9-12p9------|
D|-12p9-----------12p9------12p9-----------12p9-----------12p9-|
A|-------------------------------------------------------------|
E|-------------------------------------------------------------|

e|--------------------------------12-12---------12-12------------|
B|----------------------------------------------------[-stuff-]--|
G|------------------------15b(17)-------15b(17)-------[missing]--|
D|-7b(9)-----r(7)-<7>~-------------------------------------------|
A|---------------------------------------------------------------|
E|---------------------------------------------------------------|

 [1:49]
e|-17b(19)~--17b(19)--17b(19)-17b(19)-17b(19)-19(21)-19b(21)-----|
B|---------------------------------------------------------------|
G|---------------------------------------------------------------|
D|---------------------------------------------------------------|
A|---------------------------------------------------------------|
E|---------------------------------------------------------------|

e|19(21)-19b(21)--17--15-14-15-17-15-14-12~-\/23b(24)~-23b(24)~-23b(24)~-|
B|-----------------------------------------------------------------------|
G|-----------------------------------------------------------------------|
D|-----------------------------------------------------------------------|
A|-----------------------------------------------------------------------|
E|-----------------------------------------------------------------------|

e|--------------------------------------|
B|---------------[pick scrape]----------|
G|-[trill]------------------------------|
D|------------------x\------------12\---|
A|-10h12p10h12etc.--x\------------12\---|
E|--------------------------------12\---|



MF-B 1998-2017: при цитировании ссылка на сайт Das ist Motorhead обязательна.