Motorhead tabs...
                                 Poison

                                Motorhead

>Originally released on the "Bomber" album

Version 1.0
September 3rd 1997

Transcribed by  Matt Javes (matt@redstart.demon.co.uk)
Revised by Gus Siewert (ktulu@cs.mcgill.ca)

Visit Catch My Smoke - The Motorhead Tab Page
http://www.cs.mcgill.ca/~ktulu/motorhead

. : palm muting
~ : vibrato
b : bend
r : release

Tuning: Halfway between Eb and D

Intro Riff 
e|---------------|
B|---------------|
G|-----5---------|
D|-----5------5--|
A|-5-7----5-7-5--|
E|---------------|

'Pre-Verse'
  Guitar
e|--------------------------|
B|--------------------------|
G|--------------------------|
D|-9--9-9-9-9-7--5--5-------|
A|-7--7-7-7-7-5--3--3-------|
E|--------------------------|
 |Bass                      |
G|--------------------------|
D|--------------------------|
A|-7--7-7-7-7-5--3--3---3-5-|
E|--------------------------|

Verse
e|--------------------------------|
B|--------------------------------|
G|-----9~-----9~------9~------12--|
D|----------------------------12--|
A|-7-7----7-7-----7-7-----7-7-10--|
E|--------------------------------|
   . .    . .     . .     . .

Chorus                (1st,3rd)                        (2nd)
e|----------------------------|----------------------------|
B|----------------------------|----------------------------|
G|----------------------------|----------------------------|
D|-2--2--2-4-5--5-5-5-5-5-5-4-|-2--2--2-4-5--4-5-4-5-4-5-4-|
A|-0--0--0-2-3--3-3-3-3-3-3-2-|-0--0--0-2-3--2-3-2-3-2-3-2-|
E|----------------------------|----------------------------|

                          (4th)
e|----------------------------|
B|----------------------------|
G|----------------------------|
D|-2--2--2-4-5--5--5--5-5--4--|
A|-0--0--0-2-3--3--3--3-3--2--|
E|----------------------------|

Solo Intro (2 guitars or use an octaver)
e|-17---17--| Guitar 2 
B|-20br-20~-|

G|-14br-14~-| Guitar 1
D|----------|
A|----------|
E|----------|

Solo Backing (Bass)
G|-------------------------------------------------------|
D|-------------------------------------------------------|
A|-0--0--0-2-3--3-3-3-3-3-3-2-5--5--5-3-2--2-2-2-2-2-2-2-|
E|-------------------------------------------------------|
Play this twice, then the 'Pre-Verse' x4

                



MF-B 1998-2017: при цитировании ссылка на сайт Das ist Motorhead обязательна.