Motorhead tabs...
                              Motorhead

                     (I Won't) Pay Your Price

> From the "Overkill" album

Version 1.0
Last updated: January 23th, 1998

Transcribed by Gus Siewert (ktulu@cs.mcgill.ca>

Visit Catch My Smoke - The Motorhead Tab Page
http://www.cs.mcgill.ca/~ktulu/motorhead

Tune down to Eb.

Intro                                   
e|----------------------------------------------------|
B|----------------------------------------------------|
G|-------------------12br-10--------------------12-10-|
D|----12----12----12-12br-10-----12----12----12-12-10-|
A|----12----12----12-------------12----12----12-------|
E|-10----10----10-------------10----10----10----------|
    .     .     .              .     .     .

e|----------------------------------------------------|
B|----------------------------------------------------|
G|-------------------12br-10--------------------12-10-|
D|----12----12----12-------------12----12----12-12-10-|
A|----12----12----12-------------12----12----12-------|
E|-10----10----10-------------10----10----10----------|
    .     .     .              .     .     .

Verse
e|------------------------------------------------------|
B|------------------------------------------------------|
G|-------------------12br-10--------------------12br-10-|
D|----12----12----12-12br-10-----12----12----12---------|
A|----12----12----12-------------12----12----12---------|
E|-10----10----10-------------10----10----10------------|
    .     .     .              .     .     .

e|------------------------------------------------|
B|------------------------------------------------|
G|-------------------12br-10----------------------|
D|----12----12----12-12br-10-----12----12----12-\-|
A|----12----12----12-------------12----12----12-\-|
E|-10----10----10-------------10----10----10----\-|
    .     .     .              .     .     .

Chorus
  Lead Guitar                      (x1)                       (x2)
e|-------------------------------------|---17----------17-17------|
B|-------------------------------------|---20b(22)-----20b20b-----|
G|-5b(6)-5-----5b(6)r(5)---------------|--------------------------|
 |                                     |	                        |
 |Rhythm Guitar                        |                          |
D|---3---3---3-3p1-----5---5---5-5p3---|-7-7---5-5-----7-7---5-5--|
A|-----------------3-----------------5-|-7-7---5-5-----7-7---5-5--|
E|-1---1---1---------3---3---3---------|-5-5---3-5-----5-5---3-5--|

Solo backing is made up of:
Verse (x2)
Chorus

Riff before 2nd solo 
e|--------------------------------------------------------------|
B|-15-------17-------18-------17-------15------17------18-------|
G|-17b(19)--19b(21)--20b(22)--19b(21)--17b(19)-19b(21)-20b(22)--|
D|--------------------------------------------------------------|
A|--------------------------------------------------------------|
E|--------------------------------------------------------------|

e|---------------------------------------------|
B|-15-------17-------18-------17-------15------|
G|-17b(19)--19b(21)--20b(22)--19b(21)--17b(19)-|
D|---------------------------------------------|
A|---------------------------------------------|
E|---------------------------------------------|



MF-B 1998-2017: при цитировании ссылка на сайт Das ist Motorhead обязательна.