Motorhead tabs...
                        Motorhead

                    Lost in the Ozone

> from the "Bastards" album

Version 1.0
Last updated: September 26th, 1997

Transcribed by: Gus Siewert (ktulu@cs.mcgill.ca)

Visit Catch My Smoke - The Motorhead Tab Page
http://www.cs.mcgill.ca/~ktulu/motorhead

h  : hammer-on
p  : pull-off
/  : slide up
\  : slide down
b(): bend to note in brackets
r(): release bend
.  : palm muting

Tune down a half step.

Chords used 
   Em   C   Cadd9  G5  B5  C5  D5  
e|-0----0-----0--------------------|
B|-0----1-----3--------------------|
G|-0----0-----0---------4---5---7--|
D|-2----2-----2-----5---4---5---7--|
A|-2----3-----3-----5---2---3---5--|
E|-0----------------3--------------|

Main riff                    (x3)
e|-------------------------------|-----------0----------|
B|-------------------------------|-----------1----------|
G|--------7/9-7------------------|-5-5-------2----------|
D|-2------7/9-7--7-7-7-7-7-7-7-7-|-5-5----4--2----------|
A|-2------5/7-5--5-5-5-5-5-5-5-5-|-3-3----2--0----------|
E|-0-0-0-------------------------|----------------------|
     . .         . . . . . . . .	    


-=Verse 1=-: (acoustic guitar)
Em                  C  	            Cadd9
I am a drifter on a hungry empty sea
Em                          C	        Cadd9
There is no one on earth to rescue me
Em                                C	                 Cadd9
The winter storms they freeze me, summer burned alive
Em                     C                     Cadd9
I can't remember when another soul passed by

-=Main riff=-

-=Verse 2=-: (acoustic guitar)
Em                            C                     Cadd9
Marooned and stranded, on the Islands of the Damned
Em                          C            Cadd9
There is no one on earth to take my hand
Em                             C                Cadd9
There is no voice to speak, no soul for company
Em                             C                  Cadd9
The sun goes down like blood into the Western Sea

-=Chorus=-:
G5                        B5
    Alone and dying and a thousand miles from home
C5                        D5
    I know I never was so broken and alone
G5                              B5
    I searched the sky for God, shivered to the bone
     C5                D5
    Drowned in sorrow, Lost in the Ozone

-=Bridge=-
e|---------------------|--------------------------------------------|
B|---------------------|--------------------------------------------|
G|---------------------|-7---7-7--7--7---4-4-4--4-4--3-3-3--3-3--3--|
D|-2----[pick scrape]--|-7---7-7--7--7---4-4-4--4-4--3-3-3--3-3--3--|
A|-2-------------------|-5---5-5--5--5---2-2-2--2-2--1-1-1--1-1--1--|
E|-0-------------------|--------------------------------------------|
                         No hand for me, abandon me,  wash over me

e|----------------------------------------------|
B|----------------------------------------------|Bass only
G|----------------------------------------------|---------------------|
D|---------5------------5-----------------------|---------------------|
A|-5-5-5-5-5----5-5-5-5-5----4-4-4-4-4-4-4-4--4-|---[slowly slide up]-|
E|-3-3-3-3-3----3-3-3-3-3----2-2-2-2-2-2-2-2--2-|-2////////////////19-|
   . . . .      . . . .      . . . . . . . .  .
              watch over me                        Drowned forever

-=Bloody Great Bass solo=- (chord names indicate guitar backing)
      E5                           C5                E5
G|---------------------------------------------------9-7-----7-9-7-----------|
D|------------5h7/9-7p5-7-5--------------------5-7/9-----8h9-------9-7h9-7---|
A|----7-----7---------------7-5\3--3----3-5/7--------------------------------|
E|---------------------------------------------------------------------------|

   C5                  E5                  C5                 E5
G|---------------------7-----9-----7-9--9--11--/12-12---12/14-14-12-14-16----|
D|-5-7b(8)r(7)-5---7-9---7-9---7-9--9----------------------------------------|
A|---------------------------------------------------------------------------|
E|---------------------------------------------------------------------------|
                                     
                     C5
G|-14\12-14-12-11-12-11\9-11-9----9----------------------------|
D|-----------------------------12---12\10-12-10-9-10-9-7-9-7---|
A|-------------------------------------------------------------|
E|-------------------------------------------------------------|

-=Chorus=-:
G5                         B5
    Alone and crying and a thousand miles astray
C5                                D5
    Alone up on the cruel sea for sworn and cast away
G5                               B5
    I turned my face to God, but his face was turned away
     C5                D5
    Lost in the ozone, nothing left to say
     C5                D5
    Lost in the ozone, nothing left to say

-=Main riff=-



MF-B 1998-2017: при цитировании ссылка на сайт Das ist Motorhead обязательна.