Motorhead tabs...

                            Overkill

                            Motorhead

>From the "Overkill" album

Version 1.1
July 26th, 1997

Transcribed by: Matt Javes (matt@redstart.demon.co.uk)
Corrected by: Gus Siewert (ktulu@cs.mcgill.ca)

Visit Catch My Smoke - The Motorhead Tab Page
http://www.cs.mcgill.ca/~ktulu/motorhead

. ; palm muting

Tuning: Eb (down half a step).

Intro
e|-----------|
B|-----------|
G|-----------|
D|-999-9-997-|
A|-777-7-775-| The bass is just fiddling around between the 5th & 7th
E|-----------| frets.

Only way to feel the noise.....
e|--------------------|
B|--------------------|
G|--------------------|
D|-14-12------14-12---|
A|-12-10------12-10---|
E|--------------------|

Don't sweat it...
e|----------------|
B|----------------|
G|----------------|
D|-7-55-----7-55--|
A|-5-33-----5-33--|
E|----------------|

e|--------------------|
B|--------------------|
G|--------------------|
D|-----12------12-14--|
A|-----10------10-12--|
E|-0000----0000-------|

Overkill.....
e|----------------------------------------|
B|----------------------------------------|
G|----------------------------------------|
D|----------------------7-7-7-7-7-77------|
A|-4444-9979-9-9-7-4444-5-5-5-5-5-55------|
E|-2222-7757-7-7-5-2222-------------------|


e|--------------------------------------------------|
B|--------------------------------------------------|
G|--------------------------------------------------|
D|-----14-----14-----14-----14--14--14--14--14-1414-|
A|-----12-----12-----12-----12--12--12--12--12-1212-|
E|-0000---0000---0000---0000------------------------|

1st solo backing
e|-----------------|
B|-----------------|
G|-----------------|
D|-----------------|
A|-5-7-7-7-7-7-7-7-|
E|-3-5-5-5-5-5-5-5-|

2nd & 4th solo backings
e|-------------|-------------|-------------|-----------------|
B|-------------|-------------|-------------|-----------------|
G|-------------|-------------|-------------|-----------------|
D|-9-9-9-9-9-9-|-7-7-7-7-7-7-|-5-5-5-5-5-5-|-5--4--5--4--5-4-|
A|-7-7-7-7-7-7-|-5-5-5-5-5-5-|-3-3-3-3-3-3-|-3--2--3--2--3-2-|
E|-------------|-------------|-------------|-----------------|

3rd & 5th solo backings
e|-------------|-------------|-------------|-----------------|
B|-------------|-------------|-------------|-----------------|
G|-9-9-9-9-9-9-|111111111111-|121212121212-|14-12-14-12-1412-|
e|-------------|-------------|-------------|-----------------|
A|-7-7-7-7-7-7-|-9-9-9-9-9-9-|101010101010-|12-10-12-10-1210-|
E|-------------|-------------|-------------|-----------------|



MF-B 1998-2017: при цитировании ссылка на сайт Das ist Motorhead обязательна.