Motorhead tabs...
Visit Catch My Smoke - The Motorhead Tab Page
http://www.cs.mcgill.ca/~ktulu/motorhead

From: Matt Javes 


                             Over Your Shoulder
                                
                                Motorhead

Tune down to Eb (half a step) and then tune the E string down a
further note to C# (1.5 steps) (i.e. tune to Eb, then put it
into drop D).

b = bend
r = release
<> = artificial harmonic

Main Riff
e|--------------------------------|
B|--------------------------------|
G|--------------------------------|
D|--------------------------------|
A|-0-0-3-0-5-3-0-3-0-0-3-0-6-5-3--|
E|-0-0-3-0-5-3-0-3-0-0-3-0-6-5-3--|
The intro is based on this (it's hard to work it out exactly). 
For the verse play this with palm muting.

Chorus 1 
e|-------------------------------------------------------------|
B|-------------------------------------------------------------|
G|-------------------------------------------------------------|
D|-------------------------------------------------------------|
A|-4-2-2-2-4-2-2-2---------------------4-2-2-2-4-2-2-2--5-5-3--|
E|-4-2-2-2-4-2-2-2-<5>br-<3>-<5>br-<3>-4-2-2-2-4-2-2-2--5-5-3--|

Bridge
e|----------------------------------|
B|----------------------------------|
G|----------------------------------|
D|----------------------------------|
A|-8-888888888888885535-535-535-353-|
E|-8-888888888888885535-535-535-353-|

e|------------------------------------|
B|------------------------------------|
G|------------------------------------|
D|------------------------------------|
A|-88888888888888885-5555553-4-4--4-4-|
E|-88888888888888885-5555554-4-4--4-4-|
For the solo I think you might sort of gradually add in 
artificial harmonics (it sounds good anyway).

Chorus 2
e|-------------------------------------------------------------|
B|-------------------------------------------------------------|
G|-------------------------------------------------------------|
D|-------------------------------------------------------------|
A|-6-4-4-4-6-4-4-4---------------------6-4-4-4-6-4-4-4--7-7-5--|
E|-6-4-4-4-6-4-4-4-<7>br-<5>-<7>br-<5>-6-4-4-4-6-4-4-4--7-7-5--|
This is played during the last chorus. You play Chorus 1 twice
followed by Chorus 2 twice.

-- 
Matt Javes              Everything above represents my opinion only. 
                                Except when I'm lying....

        matt@redstart.demon.co.uk 

                
                




MF-B 1998-2017: при цитировании ссылка на сайт Das ist Motorhead обязательна.