Motorhead tabs...
                               Over the Top

                                Motorhead

First released on the B-side of the Bomber single.

Visit Catch My Smoke - The Motorhead Tab Page
http://www.cs.mcgill.ca/~ktulu/motorhead

Version 1.1
July 28th, 1997

Transcribed by Matt Javes (matt@redstart.demon.co.uk)

Tune down to Eb (half a step).

!!Warning!! This song contains one of the coolest riffs ever!

Main Riff (mute slightly under vocals)
e|-------------------------------|
B|-------------------------------|
G|-------------------------------|
D|-2-2-----2-2-----2-2-----7--5--|
A|-0-03030-0-03030-0-03030-5--3--|
E|--------3-------3-------3------|

Chorus 
e|------------------|
B|------------------|
G|------------------|
D|-7-9-9997-79-9999-|
A|-5-7-7775-57-7777-|
E|------------------|
Listen to song for exact rhythm

Bridge (start of solo)
e|-------------------------------|
B|-------------------------------|
G|-------------------------------|
D|-2-------22------22------7--5--|
A|-0-------00------00------5--3--|
E|-------------------------------|


-- 
Matt Javes              Everything above represents my opinion only. 
                                Except when I'm lying....

        matt@redstart.demon.co.uk 

                
                




MF-B 1998-2017: при цитировании ссылка на сайт Das ist Motorhead обязательна.