Motorhead tabs...

                             Sex And Outrage

                                Motorhead

>From the "Iron Fist" album

Visit Catch My Smoke - The Motorhead Tab Page
http://www.cs.mcgill.ca/~ktulu/motorhead

Version 1.0
June 27th, 1997

Transcribed by Gus Siewert (ktulu@cs.mcgill.ca)

~ : vibrato
" : tremolo picking
. : palm muting

Tune down to Eb.

Intro
   Fast Eddie
e|--------------|--------------|--------------|--------------|
B|--------------|--------------|--------------|--------------|
G|--------------|--------------|--------------|--------------|
D|-7------------|-7------------|-7------------|-7------------|
A|-7------------|-7------------|-7------------|-7------------|
E|-5------------|-5------------|-5------------|-5------------|
 | Lemmy
G|--------------|--------------|--------------|--------------|
D|--------------|--------------|--------------|--------------|
A|----------3-3-|----------3-3-|----------3-3-|----------3-3-|
E|-5-55-3-5-----|-5-55-3-5-----|-5-55-3-5-----|-5-55-3-5-----|
				     You ready?         go go!

  Riff 1                        (x2)
e|-----------------|----------------|
B|-----------------|----------------|
G|----------55-5-5-|----------55-5--|
D|----------55-5-5-|----------55-5--|
A|-77-55-77--------|-77-55-77-------|
E|-55-33-55--------|-55-33-55-------|

 Verse        (x4)     Chorus      (x4)
|-----------------|   |----------------|
|-----------------|   |----------------|
|-----------------|   |----------------|
|-------------5-5-|   |----------------|
|---7---7--7--5-5-|   |-9-9-9-7--------|
|-0---0---0-------|   |-7-7-7-5--------|
|-----------------|   |----------------|
  .   .   .

1st Solo Backing. (Solo is very similar to that of 'Spades)  
               (x4)              (x4)              (x4)
e|-----------------|-----------------|-----------------|
B|-----------------|-----------------|-----------------|
G|-----------------|-----------------|-----------------|
D|-9-9-9-9-9-9-9-9-|-5-5-5-5-5-5-5-5-|-7-7-7-7-7-7-7-7-|
A|-7-7-7-7-7-7-7-7-|-3-3-3-3-3-3-3-3-|-5-5-5-5-5-5-5-5-|
E|-----------------|-----------------|-----------------|

2nd solo backing:
Riff 1 (x4)    Verse (x4)     Chorus (x4)

Fill during chorus riff:     e|-12---12--| 
                             B|-15~--15~-|
                             G|----------|

                                             tremolo pick 
Coda                                          ad nauseum
e|------------|------------|------------|-------0"-------|
B|------------|------------|------------|-------0"-------|
G|------------|------------|------------|-------9"-------|
D|-9--9--9--7-|-9--9--9--7-|-9--9--9--7-|-7-7-7-9"etc.---|
A|-7--7--7--5-|-7--7--7--5-|-7--7--7--5-|-5-5-5-7"-------|
E|------------|------------|------------|-------0"-------|


Lyrics:
Seize the time, there's only minutes left to zero
Just got a little taste, I gotta get some more

Just me and you,
Teenage, backstage, Sex And Outrage

It's like I got an outboard motor in my bloodstream
And all you've done tonight is walk in through the door

No lie - all true,
Teenage, backstage, Sex And Outrage

I think you know exactly what I'm trying to get at
The way you move yourself should be against the law

It's up to you
Teenage, backstage, Sex And Outrage




MF-B 1998-2017: при цитировании ссылка на сайт Das ist Motorhead обязательна.