Motorhead tabs...
                                Motorhead

                            "Out of The Sun"
                     From the "Sacrifice" Album 1995

Version 1.0
Last updated: May 24th, 1997                      

Transcribed by Gus Siewert (ktulu@cs.mcgill.ca)

Visit Catch My Smoke - The Motorhead Tab Page
http://www.cs.mcgill.ca/~ktulu/motorhead

. : palm mute
/ : slide up
\ : slide down
p : pull-off

Tune down half a step to Eb.

Before the drums come in, the main riff is played with slight distortion.
Afterwards you can turn loose the dogs.

Verse
(first three times)
   B5                                              D5   
e|-------------------------------------------------------------|
B|-------------------------------------------------------------|                        
G|-------------------------------------------------2-----2-----|
D|-4---4-----4-----4---4-----4-----4---4-----4-----0-----0-----|
A|-2-2-2-2-2-2-2-2-2-2-2-2-2-2-2-2-2-2-2-2-2-2-2-2---2-2---2-2-|
E|-------------------------------------------------------------|
     .   . .   . .   .   . .   . .   .   . .   . .   . .   . .

(fourth time)                    
   G5  C#5  F#5     B5
e|--------------------------------------------|
B|--------------------------------------------|
G|------6--------------------------10p9\7/9\7-|
D|-5----6----4----------4-4-4---4--10p9\7/9\7-|
A|-5----4----4------2-2-2-2-2-2-2-------------|
E|-3---------2--------------------------------|
                    . .       .      

Chorus                
(twice)
   B5            F#5           D#5           E5
e|-------------------------------------------------------|
B|-------------------------------------------------------|
G|-4---4---4-4-----------------8---8---8-8---9---9---9-9-|
D|-4---4---4-4---4---4---4-4---8---8---8-8---9---9---9-9-|
A|-2---2---2-2---4---4---4-4---6---6---6-6---7---7---7-7-|
E|---------------2---2---2-2-----------------------------|

(third time)
   F#5                         E5
e|------------------------------------------------------------------|
B|------------------------------------------------------------------|
G|-------------------------------------------------------10p9\7/9\7-|
D|-4---4---4-4---4---4---4-4---2---2---2-2---2---2---2-2-10p9\7/9\7-|
A|-4---4---4-4---4---4---4-4---2---2---2-2---2---2---2-2------------|
E|-2---2---2-2---2---2---2-2---0---0---0-0---0---0---0-0------------|


Rhythm for 1st solo is same as Verse

Bridge (also during bass solo)
   F#5   G5
e|----0-----0--0-|
B|----0-----0--0-|
G|----3-----4--4-|
D|-4-----5-------|
A|-4-----5-------|
E|-2-----3-------|

Rhythm behind second guitar solo, repeat until fadeout
   F#5             G5      A5  G5
e|---------------------------------|
B|---------------------------------|
G|---------------------------------|
D|---------------------------------|
A|-4-4-4-4-4-4-4-4-5-5-5-5-7-7-5-5-|
E|-2-2-2-2-2-2-2-2-3-3-3-3-5-5-3-3-|
   . . . . . . . . . . . . . . . .
With each bar, gradually release muting 


Lyrics:
The wind is cold where I live, the blizzard is my home
Snow and ice and loaded dice, the Wizard lives alone,
The wind is cold where I live, white and cold, and clean,
White and cold and bought and sold and heartbreak in between
And so ye shall see what is done and done.
And done.

Trees are stone where I live, leaves of razor steel,
High and low and ice and snow, broken on the wheel,
Trees are stone where I live, flowers made of glass,
Cold and white and wrong and right and voices from the past
And all our yesterdays are now undone. 
Out of the sun.

Frozen and insane, I alone remain,
Held in the vice of my disdain,
There is no way that anyone will ever
Make me warm again.

Life is death where I live, frozen grin my smile,
Sun is moon and out of tune, broken strings and bile,
Death is life where I live, hearts turned into stone,
Frozen breath, and frozen death and prisons made of bone.
And so we shall see what's become's become.
Out of the sun.   




MF-B 1998-2017: при цитировании ссылка на сайт Das ist Motorhead обязательна.