Motorhead tabs...
Visit Catch My Smoke - The Motorhead Tab Page
http://www.cs.mcgill.ca/~ktulu/motorhead

From: Matt Javes 


                                Orgasmatron

                                Motorhead

First released on the "Orgasmatron" album.

This is based on the copy at OLGA. I've taken out Sepultura
solo, and added in the little riffs which are played throughout
the song.

Originally tabbed by IVO (efei@eu.ansp.br)

Tune down to Eb (half a step).

Chords
    E5   A5   C#5   F#5   C5   D5  
e|--------------------------------|
B|--------------------------------|
G|--------------------------------|
D|--5-----2----6-----------5----7-|
A|--7-----0----4-----4-----3----5-|
E|--0----------------2------------|

Riff A (over C#5)         (over F#5)
e|-----------------------|---------------------|
B|-----------------------|---------------------|
G|------------9----------|-11-11-11-9-9-11-11--|
D|-11-11-11-9---9-11-11--|---------------------|
A|-----------------------|---------------------|
E|-----------------------|---------------------|

-=VERSE1=-
E5
I am the one, Orgasmatron, the outstretched grasping hand
My image is of agony, my servants rape the land
A5
Obsequious and arrogant, clandestine and vain
E5
Two thousand years of misery, of torture in my name
C#5 +Riff A               F#5
Hypocrisy made paramount, paranoia the law
E5                          C5        D5           E5
My name is called religion, sadistic, sacred whore

-=VERSE2=-
I twist the truth, I rule the world, my crown is called deceit
I am the emperor of lies, you grovel at my feet
I rob you and I slaughter you, your downfall is my gain
And still you play the sycophant and rebel in your pain
And all my promisses are lies, all my love is hate
I am the politician, and I decide your fate

-=BRIDGE=-
e|----------------------|-----------------------|
B|----------------------|-----------------------|
G|------------9---------|------------9----------|
D|-11-11-11-9---9-11-11-|-11-11-11-9---9-11-11--|
A|----------------------|-----------------------|
E|----------------------|-----------------------|

e|----------------------|-----------------------|
B|----------------------|-----------------------|
G|----------------------|-----------------------|
D|---------------8------|-----------------------|
A|--------7-------------|--------7--------------|
E|-6--------------------|-6-------------0-------|
Play both the bars above twice, then play Riff A, then play the
chords you would for the last line of the verse: 
(E5     C5 D5 E5)

-=VERSE3=-
I march before a martyred world, an army for the fight
I speak of great heroic days, of victory and might
I hold a banner drenched in blood, I urge you to be brave
I lead you to your destiny, I lead you to your grave
Your bones will build my palaces, your eyes will stud my crown
For I am Mars the god of war, and I will cut you down.

-=BRIDGE=-

-- 
Matt Javes              Everything above represents my opinion only. 
                                Except when I'm lying....

        matt@redstart.demon.co.uk 

                
                





Рекомендуем посетить сайты партнеров:

Реклама на сайте
Реклама продам земельный участок под коммерцию

MF-B 1998-2017: при цитировании ссылка на сайт Das ist Motorhead обязательна.