Motorhead tabs...
                              One Track Mind

                                Motorhead

>From the Another Perfect Day album.

Visit Catch My Smoke - The Motorhead Tab Page
http://www.cs.mcgill.ca/~ktulu/motorhead

Version 1.0
July 3rd, 1997

Transcribed by Matt Javes (matt@redstart.demon.co.uk)
Corrections by Gus Siewert

Tune down to Eb.

h/p = hammer on/pull off
. = palm mute
b = bend
/ \ = slide up/down

Intro
e|--------------------------------------------------|
B|----------------------------------------------14--|
G|--------------------------------------------14----|
D|----14-12--12-12h14------14-12--12-12h14--12------|
A|-0-------------------000--------------------------|
E|--------------------------------------------------|
   .                   ...

Fill
e|--------|
B|--------|
G|-98750--|
D|--------|
A|--------|
E|--------|

Verse + Solo Backing
e|------------------------------------------------------------------|
B|-----------------------------------------------------------98750--|
G|------------------------------------------------------------------|
D|------------------------------------------------------------------|
A|-000-0-00000-0-00000-0-000000303b-00-0-00000-0-00000-0-000--------|
E|------------------------------------------------------------------|
   ... . ..... . ..... . .........  .. . ..... . ..... . ...

Chorus
e|-----------------------------|-----------|---------|
B|-----------------------------|-----------|---------|
G|-2-------7-------------------|---5-5p0h5-|--Repeat-|
D|-2---3-5-7---3-5-2---3-5-7---|---5-5p0h5-|---1st---|
A|-0---3-5-5---3-5-2---3-5-7---|-----------|-Section-|
E|-----1-3-----1-3-0---1-3-5---|-----------|---------|

Bridge
e|---------------------------------|
B|---------------------------------|
G|-----9999-----9999--7--77--------|
D|-----9999-----9999--7--77--7--5\-|
A|-----7777-----7777--5--55--7--5\-|
E|-000------000--------------5--3\-|
   ...      ...

Pre-Solo
e|---------------|
B|---------------|
G|---------------|
D|---------------|
A|-55555555------|
E|-33333333-etc.-|

                



MF-B 1998-2017: при цитировании ссылка на сайт Das ist Motorhead обязательна.