Motorhead tabs...
                       ON YOUR FEET OR ON YOUR KNEES
                            
                                 Motorhead
                        from the album "Bastards"  1993

                       transcribed by Scott Andrews

Main Riff
|--------------------|
|--------------------|
|------7-----5---5---|
|------7-----5---5---|
|--0-0---6-7---7-----|
|--------------------|


Chorus

| E   | D    | E    | G riff   |

G riff
|-----------------------------|
|-----------------------------|
|------3-----5-----3-----5~---|
|------3-----5-----3-----5~---|
|-----------------------------|
|--3-3---3-3---3-3---3-3------|





MF-B 1998-2017: при цитировании ссылка на сайт Das ist Motorhead обязательна.