Motorhead tabs...

                           Nothing Up My Sleeve

                                Motorhead

>From the "Orgasmatron" album

Version 1.2
October 15th, 1997

Transcribed by Gus Siewert (ktulu@cs.mcgill.ca)
Corrected   by Matt Javes (matt@redstart.demon.co.uk)

Visit Catch My Smoke - The Motorhead Tab Page
http://www.cs.mcgill.ca/~ktulu/motorhead

Tune down to Eb.

/ \ = slide up/down
 x  = left hand/percussive mute
 h  = hammer-on
 p  = pull-off
b() = bend to note in brackets
 ~  = vibrato
< > = artificial harmonic

Bass Intro (It's a mess, you just gotta listen to the record and get the 
proper groove from it. By the way it's not exactly Ace Of Spades)
G|----------------------------------------------|
D|----------------------------------------------|
A|-7-7-5h7-7-7-77-5h7-7-7-77-777-77-5h7-777-777-|
E|----------------------------------------------|

            Main/Verse Riff (7 times)   Last line of verse                
e|---------|-------------------|------------------|
B|---------|-------------------|------------------|
G|---------|-------------------|------------------|
D|-9-------|---9-x7-x9-x7-x7/9-|-9999999999999999-|
A|-7-7-9-2-|---7-x5-x7-x5-x5/7-|-7777777777777777-|
E|---0-7-0-|-0-----------------|------------------|
each time you come to this riff, miss off the first '0'.

                                                      
Chorus                                                     
e|-------------------------------|-------------------------------------|
B|-------------------------------|-------------------------------------|
G|-------------------------------|-------------------------------------|
D|-7-----------------------------|---7--5--7--5--5-7---7--5--7--5--5/7-|
A|-7--7-7-7-77-777-7-7-7-7-77-77-|---5-x3-x5-x3-x3/5---5-x3-x5-x3-x3/5-|
E|-5--5-5-5-55-555-5-5-5-5-55-55-|-0-----------------0-----------------|

e|--------|------------------------------|
B|--------|------------------------------|
G|-repeat-|------------------------------|
D|--1st---|-7-7777-77-7-2-x3-x4-x5-6-7-8-|
A|--bar---|-5-5555-55-5-0-x1-x2-x3-4-5-6-|
E|--------|------------------------------|

Chorus Fill
e|--------------------------|
B|--------------------------|
G|-9b-10b-11b-12b-13b14b15b-|
D|--------------------------|
A|--------------------------|
E|--------------------------|
This is played with a slight pinch harmonic (enough to sharpen the sound, but not enough to
'scream')

1st Solo backing x4
e|---------------------------------|
B|---------------------------------|
G|---------------------------------|
D|----7-77----7-77----7-77-7-------|
A|-7-75-55-7-75-55-7-75-55-5-7-7-7-|
E|-5-5-----5-5-----5-5-------5-5-5-|

2nd solo (backing is verse)
e|---------------------------------------------------------------------------------------|
B|-[shake that bastard------------------------------<9b>~<9b>~--<9b>---------------------|
G|--string vigorously]-------------------9p7-----9------------7--------7-9p7-9p7--7--7~-\|
D|-7b(9)r(7)b(9)r(7)~~etc.-7b(9)-7p5h7-7-----7h9---9-----------9------9-----9---9---9-----|
A|---------------------------------------------------------------------------------------|
E|---------------------------------------------------------------------------------------|

            [----hold bend------]    
e|--0-15-17b(19)--(19)(19)(19)r--17p15----------------------------------------|
B|-------------------------------------17\-(17)-17----------------------------|
G|-----------------------------------------(16)---16-19-----------------------|
D|------------------------------------------------------17-19-17-19-19-17-14~\|
A|------------------------------------------------------------------19-17----\|
E|----------------------------------------------------------------------------|

e|----------------------------|
B|----------------------------|
G|-9-11-12/14-12-11/12-11-7/9-|
D|----------------------------|
A|-7--9-10/12-10--9/10--9-5/7-|
E|----------------------------|

Post-solo
e|---------------------------------|---------------------------------|
B|---------------------------------|---------------------------------|
G|-x-12-10-12-10~---x-12-10-12-10~-|-x-14-12-14-12~---x-14-12-14-12~-|
D|-x-12-10-12-10~---x-12-10-12-10~-|-x-14-12-14-12~---x-14-12-14-12~-|
A|---------------------------------|---------------------------------|
E|---------------------------------|---------------------------------|

e|---------------------------------------------------|
B|---------------------------------------------------|
G|-7-----9-7-------9\7--\---9b-10b-11b-12b-13b14b15b-|
D|-7-----9-7-------9\7--\----------------------------|
A|-5-----7-5-------7\5--\----------------------------|
E|---------------------------------------------------|

Coda            (x4)                    (x2)                    (x2)
e|------------------|-----------------------|-----------------------|
B|------------------|-----------------------|-----------------------|
G|------------------|-----------------------|-----------------------|
D|---9-x7-x9-x7-7/9-|--12-x10-x12-x10-10/12-|--14-x12-x14-x12-12/14-|
A|---7-x5-x7-x5-5/7-|--10-x-8-x10-x-8--8/10-|--12-x10-x12-x10-10/12-|
E|-0----------------|-----------------------|-----------------------|

e|---------------------------------------------------------------------------|
B|---------------------------------------------13--14--15--16--17--17---9-9\-|
G|-9b-10b-11b-12b-13b14b-9b-10b-11b-12b-13b14b-15b-16b-17b-18b-19b-19b--9-9\-|
D|----------------------------------------------------------------------9-9\-|
A|---------------------------------------------------------------------------|
E|---------------------------------------------------------------------------|


-- 
Matt Javes              Everything above represents my opinion only. 
                                Except when I'm lying....

        matt@redstart.demon.co.uk 

                
                




Рекомендуем посетить сайты партнеров:

Реклама на сайте
Реклама http://5lad.ru/applikatury аккорды гитарные.

MF-B 1998-2017: при цитировании ссылка на сайт Das ist Motorhead обязательна.