Motorhead tabs...
                            I ain't No Nice Guy

                                Motorhead

Originally released on the "March Or Die" album.

Version 1.1
December 14th, 1997


Transcribed by Matt Javes (matt@redstart.demon.co.uk)
Correction by Gus Siewert (ktulu@cs.mcgill.ca)

Visit http://www.cs.mcgill.ca/~ktulu/motorhead

Tune down to Eb

Clean section

Intro: A E D
Verse: A E D A G D
e|-0--0--2--|-0--3--2--|
B|-2--0--3--|-2--3--3--|
G|-2--1--2--|-2--0--2--|
D|-2--2--0--|-2--0--0--|
A|-0--2-----|-0--2-----|
E|----0-----|----3-----|
   A  E  D	  A  G  D

 
Electric section: F# B F# B  A D  A G D  A G D
e|----------------|
B|----------------|
G|----------------|
D|----4-----7-----|
A|-4--2--7--5--5--|
E|-2-----5-----3--|
   F# B  A  D  G






MF-B 1998-2017: при цитировании ссылка на сайт Das ist Motorhead обязательна.