Motorhead tabs...
From: Matt Javes 
Revised by: Gus Siewert 


                                No Class

                                Motorhead

Version 1.1

Visit Catch My Smoke - The Motorhead Tab Page
http://www.cs.mcgill.ca/~ktulu/motorhead

Tune down to Eb (half a step)

Verse
e|----------------------------------|
B|----------------------------------|
G|-----7---7-5----7---7-5-----------|
D|-----7---7-5----7---7-5-----------|
A|-0-0---0------0---0------5h6h7-0--|
E|----------------------------------|

Chorus
e|-------------------------------------|
B|-------------------------------------|
G|-------------------------------------|
D|---------5-5-5-5-77-7-77-7-77-7-77-7-|
A|-3-3-3-3-3-3-3-3-55-5-55-5-55-5-55-5-|
E|-1-1-1-1-----------------------------|

e|-------------------------------------|
B|-------------------------------------|
G|-------------------------------------|
D|---------5-5-5-5-99-9-99-9-99-9-99-9-|
A|-3-3-3-3-3-3-3-3-77-7-77-7-77-7-77-7-|
E|-1-1-1-1-----------------------------|

Pre-Solo
e|----------------------------------|
B|----------------------------------|
G|-----7---7-5----7---7-5-----------|
D|-----7---7-5----7---7-5-----------|
A|-0-0---0------0---0-----7-7-------|
E|------------------------5-5-------|

Solo
e|-------------------------------|-----------------------------|
B|-play-this-bit-twice-----------|-----------------------------|
G|-------------------------------|-----------------------------|
D|-77-7-77-7-77-7-77-7-77-7-77-7-|-5-5-7-7-99-9-99-9-99-9-99-9-|
A|-55-5-55-5-55-5-55-5-55-5-55-5-|-3-3-5-5-77-7-77-7-77-7-77-7-|
E|-------------------------------|-----------------------------|




MF-B 1998-2017: при цитировании ссылка на сайт Das ist Motorhead обязательна.