Motorhead tabs...

                              Name In Vain

                               Motorhead

Originally released on the "March Or Die" album

Version 1.2
January 19th, 1998

Transcribed by Matt Javes (matt@redstart.demon.co.uk)

Visit Catch My Smoke - The Motorhead Tab Page
http://www.cs.mcgill.ca/~ktulu/motorhead

Tune down to Eb

 ~ = vibrato

Bass: this is the same as the rhythm guitar (root notes of chords).

Verse Riff (Lead Guitar)
e|--------------------------------|
B|--------------------------------|
G|---7-5~------------7-5~---------|
D|-------7-5-7-575-------7-5-7-57-|
A|-0--------------00--------------|
E|--------------------------------|

Verse Riff (Rhythm Guitar)
e|-------------------------------|
B|-------------------------------|
G|-------------------------------|
D|-2--5-7-5-57--5-2--5-7-5-57--5-|
A|-0--3-5-3-35--3-0--3-5-3-35--3-|
E|-------------------------------|

Pre-chorus (Both Guitars)
e|-----------------------|
B|-----------------------|
G|-7----7----7----7------|
D|-7----7----7----7------|
A|-5----5----5----5------|
E|-----------------------|

Chorus (Both Guitars)
e|------------------------|
B|------------------------|
G|------------------------|
D|-5-5-5-5-55-2-3-4-5-67--|
A|-3-3-3-3-33-0-1-2-3-45--|
E|------------------------|

Bridge: this is the rhythm guitar Verse Riff played with a different
guitar tone and lead guitar fills.





MF-B 1998-2017: при цитировании ссылка на сайт Das ist Motorhead обязательна.