Motorhead tabs...
                               Murder Show

                                Motorhead

Originally released on the "Overnight Sensation" album

Version 1.0
February 23rd, 1998

Transcribed by Matt Javes (matt@redstart.demon.co.uk)

Visit Catch My Smoke - The Motorhead Tab Page
http://www.cs.mcgill.ca/~ktulu/motorhead

Tune down to Eb (down half a step)

h/p = hammer on/pull off
 x  = left hand/percussive mute
 .  = palm mute

Main Riff
e|---------------------------------|
B|---------------------------------|
G|-------8-7-5---------------------|
D|-------8-7-5-------------------5-|
A|-7--7------------7--7--0-5-6-7---|
E|-5--5--------7h8-5--5------------|

Verse
e|--------------------------------------------------------|
B|--------------------------------------------------------|
G|--------------------------------------------------------|
D|--------------------------------------------------------|
A|-4--4--4-4-4-4-4--4--4-4-4-4-4--4--4-4-4-4-4--7--9--10--|
E|-2--2--2-2-2-2-2--2--2-2-2-2-2--2--2-2-2-2-2--5--7--8---|
         . . . .       . . . .       . . . .

Chorus
e|---------------------0---------------------------------------------0----|
B|----------------------0----------------------------------------------0--|
G|------------------------------------------------------------------------|
D|-7-------4-------2-------4-------------7-------4-------2----------------|
A|-7-------4-------2-------4-------x-x-x-7-------4-------2----------------|
E|-5-------2-------0-------2-------x-x-x-5-------2-------0----------------|

Bridge
e|-----------------------------------0------------------------------------------------|
B|------------------------------------0-----------------------------------------------|
G|------------------------------------------------------------9----9----9----9--9-9-9-|
D|-6--6--6-6-7--7--7-7-4--4--4-4-2------6--6--6-6-7--7--7-7---9----9----9----9--9-9-9-|
A|-4--4--4-4-5--5--5-5-2--2--2-2-2------4--4--4-4-5--5--5-5-7-7--7-7--7-7--7-7--7-7-7-|
E|-------------------------------0----------------------------------------------------|
                                                            .    .    .    .

Solo Backing
e|----------------------|----------------------|
B|----------------------|----------------------|
G|----------------------|----------------------|
D|----------------------|----------------------|
A|-4-4-4-4-4-4-4-4------|-6-6-6-6-6-6-6-6------|
E|-2-2-2-2-2-2-2-2-etc.-|-4-4-4-4-4-4-4-4-etc.-|
   . . . . . . . .        . . . . . . . .


                
                




MF-B 1998-2017: при цитировании ссылка на сайт Das ist Motorhead обязательна.