Motorhead tabs...
                               Motorhead
      
                              "Metropolis"
                        From the "Overkill" Album

Last updated: May 12th, 1997                      

Transcribed by Gus Siewert (ktulu@cs.mcgill.ca)

Visit Catch My Smoke - The Motorhead Tab Page
http://www.cs.mcgill.ca/~ktulu/motorhead

/ : slide up
\ : slide down
~ : vibrato
(): sustained note

Tune down half a step to Eb.

Note: If you're playing along to the live rendition from "No Sleep Till
Hammersmith" play everything one fret higher.

Intro

e|-9/11-11/12-12/14-14\12-12\11-11/12-12/14-14\12-12\11-11/12-12\11-|
B|------------------------------------------------------------------|
G|-6/8---8/9---9/11-11\9---9\8---8/9---9/11-11\9---9\8---8/9---9\8--|
D|------------------------------------------------------------------|
A|------------------------------------------------------------------|
E|------------------------------------------------------------------|

e|-12\11-11\9-9\7-7-7-7~-|
B|------------------4----|
G|--9\8---8\6-6\4-4-4-4~-|
D|-----------------------|
A|-----------------------|
E|-----------------------|


Verse            Chorus 
e|-----------| |---------|--------------------|--------|
B|-----------| |---------|--------------------|--------|
G|-----9-11~-| |-8---(8)-|--------------------|--------|
D|-----9-11~-| |-8---(8)-|--8/9-9/11-11--9--8-|-9--(9)-|
A|-----------| |-6---(6)-|--------------------|-9--(9)-|
E|-9-9-------| |---------|--6/7-7/9--9---7--6-|-7--(7)-|
  
Rhythm for solo        
  (8 times)            Drum fill Bass      End of solo
e|-----------|--------|---------|         |-----------------------------|
B|-----------|--------|---------|         |-----------------------------|
G|-----9-11~-|--------|---------|---------|-----------------------------|
D|-----9-11~-|-11-----|---------|-888-----|-9-9-9-9-9-9-9-9-9-9---9---9-|
A|-----------|-11-----|---------|-666etc.-|-9-9-9-9-9-9-9-9-9-9---9---9-|
E|-9-9-------|--9-----|---------|---------|-7-7-7-7-7-7-7-7-7-7---7---7-|



MF-B 1998-2017: при цитировании ссылка на сайт Das ist Motorhead обязательна.