Motorhead tabs...
                 Motorhead

                Mean Machine

>from the "Orgasmatron" album

Version 1.1
Last updated: June 24th, 1997
                    
Transcribed by: Gus Siewert (ktulu@cs.mcgill.ca)
Revised by: Matt Javes (matt@redstart.demon.co.uk)

Visit Catch My Smoke - The Motorhead Tab Page
http://www.cs.mcgill.ca/~ktulu/motorhead

h: hammer-on
p: pull-off
/: slide up
\: slide down
~: vibrato

Tune down to Eb

Verse (w/ phaser during intro)
e|-----------------------------------------|
B|-----------5---------5---------5---7-5-7-|
G|-----------5---------5---------5---7-5-7-|
D|-----7p5p0-----7p5p0-----7p5p0-----------|
A|-0-0---------0---------0---------0-------|
E|-----------------------------------------|

Prechorus
e|-----------------------------------|-----------------------|
B|-----------------------------------|-----------------------|
G|-----------------5-7-5-7---5-7-5-7-|-----------------------|
D|-3-3----5-5----7-5-7-5-7-7-5-7-5-7-|--3-3----5-5----4----4-|
A|-3-3----5-5----7---------7---------|--3-3----5-5----4----4-|
E|-1-1----3-3----5---------5---------|--1-1----3-3----2----2-|

Chorus
  Guitar 1
e|----------------------------------------------------|
B|----------------------------------------------------|
G|--7-7----------7-7-----------7-7--------------7-7---|
D|--7-7----------7-7-----------7-7--------------7-7---|
A|--5-5----------5-5-----------5-5--------------5-5---|
E|----------------------------------------------------|
 |Guitar 2 w/ slide & phaser (?)
e|----------------------------------------------------------|
B|-/7-7----7----/9-9----9-----/12-12----12-----/9-9----9----|
G|-/7-7------7\-/9-9------9\--/12-12-------12\-/9-9------9\-|
D|-/7-7--7------/9-9--9-------/12-12-12--------/9-9--9------|
A|----------------------------------------------------------|
E|----------------------------------------------------------|
You can play this without a slide by just barring your finger

Solo Backing (play each bar twice)
e|---------|---------|---------|---------|
B|---------|---------|---------|---------|
G|---------|---------|---------|---------|
D|-4-4-4-4-|-4-4-4-4-|---------|---------|
A|-2-2-2-2-|-2-2-2-2-|-4-4-4-4-|-2-2-2-2-|
E|---------|---------|-2-2-2-2-|-0-0-0-0-|

Fill (end of solo)
e|---------------------------------------------|
B|-12-15---12h15p12h15--12h15p12h15--12h15~~-\-|
G|---------------------------------------------|
D|---------------------------------------------|
A|---------------------------------------------|
E|---------------------------------------------|




MF-B 1998-2017: при цитировании ссылка на сайт Das ist Motorhead обязательна.