Motorhead tabs...
                               Master Plan

                            (Swenson, Stotts)

>From the No Remorse Re-issue (I don't know what it was originally on).

Version 1.0
Last updated: July 26th, 1997

Transcribed by: Matt Javes (matt@redstart.demon.co.uk)

Visit Catch My Smoke - The Motorhead Tab Page
http://www.cs.mcgill.ca/~ktulu/motorhead

Standard Tuning.

/\ = slide up/down
b/r = bend/release

Intro (Guitar) x4 per bar of bass
e|-----------------|
B|------------5----|
G|------------5----|
D|-----------------|
A|-0000-000000--00-|
E|-----------------|

Intro (Bass) x3                  
G|---------------------------------------|
D|---------------------------------------|
A|---------------------------------------|
E|-5-------5\1-------1/3-------1-3-1-3-4-|

  x1
G|---------------------------------------|
D|---------------------------------------|
A|---------------------------------------|
E|-5-------5\3-------3\0------01---3-3-3-|

Verse
Guitar
e|---------------------------------|
B|------------5--------------------|
G|------------5--------------------|
D|---------------------------------|
A|-0000-000000---000000-00-0-----3-|
E|---------------------------1-3---|
 |Bass                             |
G|---------------------------------|
D|---------------------------------|
A|-0000-0000000-0000000-00-0-----3-|
E|---------------------------1-3---|

Chorus                1st     2nd
  Guitar
e|-------------------|-------|-------|
B|-------------------|-------|-8brbrb|
G|-------------------|-8brbrb|-------|
D|-------------------|-------|-------|
A|-9-9---5-5---2-2---|-------|-------|
E|-7-7---3-3---0-0---|-------|-------|
 |Bass                               |
G|-------------------|-------|-------|
D|-------------------|-------|-------|
A|-------------------|-------|-------|
E|-7-7---3-3---0-0---|-0-0-0-|-0-0-0-|

  Guitar
e|------------------------------|
B|------------------------------|
G|------------------------------|
D|-------------7777777777777777-|
A|-9-9---5-5---5555555555555555-|
E|-7-7---3-3--------------------|
 |Bass                          |
G|------------------------------|
D|------------------------------|
A|-------------5555555555555555-|
E|-7-7---3-3--------------------|

Solo Backing (Bass)
G|-----------------------------------------------------------------|
D|-----------------------------------------------------------------|
A|-----------------------------------------------------------------|
E|-5---------------3---------------7---------------5---------------|

G|------------------------------------------------------------------|
D|------------------------------------------------------------------|
A|------------------------------------------------------------------|
E|-5555-5555555-5557777-7777777-7773333-3333333-3333333-3333333-333-|
Repeat this with the same strumming pattern throughout.

Coda: 1st bar of Intro, then;
  Guitar
e|-----|
B|-----|
G|-----|
D|-----|
A|-7-7-|
E|-5-5-|
 |Bass |
G|-----|
D|-----|
A|-----|
E|-5-5-|                  

-- 
Matt Javes              Everything above represents my opinion only. 
                                Except when I'm lying....

        matt@redstart.demon.co.uk 

                
                



MF-B 1998-2017: при цитировании ссылка на сайт Das ist Motorhead обязательна.