Motorhead tabs...
                           Marching off to War

                                Motorhead

>From the Another Perfect Day album.

Visit Catch My Smoke - The Motorhead Tab Page
http://www.cs.mcgill.ca/~ktulu/motorhead

tabbed by Matt Javes

Version 1.0
June 24th, 1997

This is still a bit rough, this album's a bugger to tab.


Tune down to Eb.

h/p = hammer on/pull off
. = palm mute
b = bend
/ = slide
~ = vibrato

Intro
e|------------------------------|-------------------------|
B|------------------------------|-------------------------|
G|------------------------------|-------------------------|
D|----------------5-5h7-------7-|---5-5h7---------------7-|
A|-0-0-0-0-etc.-0-------------5-|-7-------0-0-0-0-0-0-0-5-|
E|------------------------------|-5-----------------------|
   . . . .      .                         . . . . . . .

Verse
e|-------------------------|---------------------------|
B|-------------------------|---------------------------|
G|-------------------------|---------------------------|
D|---5-5h7-----------------|---5-5h7-------------------|
A|-0-------0-0-0-0-0-0-0-5-|-0-------0-0-0-0-5--5-3-5--|
E|-------------------------|---------------------------|
   .       . . . . . . . .   .       . . . . .  . . .

Fill
e|-----------------|
B|-----------------|
G|---------5-------|
D|-----5-7---7-5-7-|
A|-5-7-------------|
E|-----------------|

Verse End
e|----------------------|
B|----------------------|
G|----------------------|
D|-5-5h7-7b-5-7-5-------|
A|----------------7-5-0-|
E|----------------------|

Chorus
e|--------------------------------------------------------------------|
B|-6--8--10-10--8-8--8-6---------6--8--10-10--8-8--8-6----------------|
G|-5--7--9--9---7-7--7-5-7--(7)/-5--7--9--9---7-7--7-5-7--------------|
D|-----------------------7--(7)/-----------------------7-7b-5-7-5-----|
A|----------------------------------------------------------------7-5-|
E|--------------------------------------------------------------------|

Post Chorus
e|---------------------------|---------------------------|
B|---------------------------|---------------------------|
G|---------------------------|---------------------------|
D|---5-5h7---------------7-7-|---5-5h7-------------------|
A|-0-------0-0-0-0-0-0-0-----|-0-------0-0-0-0-5--5-3-5--|
E|---------------------------|---------------------------|
   .       . . . . . . .       .       . . . . .  . . .
(Last time replace 2nd bar with Verse End)

Fill in Chorus (during & after Solo)
e|----------------|
B|-----7----------|
G|-5-7---7-5------|
D|-----------7-7~-|
A|----------------|
E|----------------|


-- 
Matt Javes              Everything above represents my opinion only. 
                                Except when I'm lying....

        matt@redstart.demon.co.uk 

                
                



MF-B 1998-2017: при цитировании ссылка на сайт Das ist Motorhead обязательна.