Motorhead tabs...
                              March Or Die                             

                               Motorhead

Originally released on the "March Or Die" album

Version 1.0
March 23rd, 1998

Transcribed by Matt Javes (matt@redstart.demon.co.uk)

Visit Catch My Smoke - The Motorhead Tab Page
        http://www.cs.mcgill.ca/~ktulu/motorhead

Tune down to Eb (down half a step)

Intro
e|-----------------------------|
B|-----------------------------|
G|-----------------------------|
D|-5-/7----------------5-------|
A|-----------------------------|
E|-3-/5----------------3-------|

Verse
e|---------------------------------------------------------------|
B|---------------------------------------------------------------|
G|-5-/7--7--5-/7--7--5-/7--7--5-/7--7--5-/7--7--5-/7--7--5-------|
A|---------------------------------------------------------------|
E|-3-/5--5--3-/5--5--3-/5--5--3-/5--5--3-/5--5--3-/5--5--3-------|

Chorus
e|-----------------------------------------------|
B|-----------------------------------------------|
G|-----------------------------------------------|
D|-7-----7-----7-----7-----7-----7-----7/9-------|
A|-5--7--5--7--5--7--5--7--5--7--5--7--5/7-------|
E|----5-----5-----5-----5-----5-----5--0---------|

Post-Chorus
e|--------------------|
B|--------------------|
G|--------------------|
D|-5-/7---------------|
A|--------------------|
E|-3-/5---------------|

Coda
e|-----------------|
B|-----------------|
G|-----------------|
D|-----------------|
A|-5/7--7--5/7--7--|
E|-0----0--0----0--|





Рекомендуем посетить сайты партнеров:

Реклама на сайте
Реклама Стим Ключ активации steam counter strike

MF-B 1998-2017: при цитировании ссылка на сайт Das ist Motorhead обязательна.