Motorhead tabs...
                                Make My Day

                                 Motorhead

>From the 1916 album.

Tabbed by Matt Javes
Modded by Gus Siewert

Version 1.1
June 10th, 1997

Visit Catch My Smoke - The Motorhead Tab Page
http://www.cs.mcgill.ca/~ktulu/motorhead

<> =artificial harmonic
~ =vibrato
. =palm mute

Tune down to Eb.


WARNING: Watch your arse for this song is about to kick it.

Intro
e|-play--------10-----|----|-------------------|
B|-using high sustain-|----|-------------------|
G|-if you can't-------|----|-------------------|
D|-get-the-feedback---|----|-------------------|
A|--------------------|----|----4-<5>~---------|
E|--------------------|-9\-|-0-0-0----76537650-|
                             . . .

Verse
e|-----------------------------------|
B|-----------------------------------|
G|-----------------------------------|
D|-----------------------------------|
A|--4-<5>~---4-<5>~-4-<5>~-----------|
E|-0-0----0-0-0----0-0-0----76537650-|
   . .    . . .    . . .
Miss off the last 0 when going into the chorus.

Mid Verse/Post Chorus/Solo
e|-------------|
B|-------------|
G|-------------|
D|---5-7-5-7-7-|
A|-003050305-5-|
E|-------------|
   .. . . .

Chorus
e|--------------------------------------------|
B|--------------------------------------------|
G|--------------------------------------------|
D|---------7----------------------------------|
A|-4-------5-------9---7---4---\pick scrape---|
E|-2---------------7---5---2---\pick scrape---|


-- 
Matt Javes              Everything above represents my opinion only. 
                                Except when I'm lying....

        matt@redstart.demon.co.uk 

                
                



MF-B 1998-2017: при цитировании ссылка на сайт Das ist Motorhead обязательна.