Motorhead tabs...
                               Motorhead
                            Love Me Forever

> From the "1916" album

Version 2.0
Last updated: March 10th, 1998

Rhythm Guitar by Gus Siewert (ktulu@cs.mcgill.ca)
Rhythm Guitar corrections by Matt Javes (matt@redstart.demon.co.uk>
Second guitar solo by Fred (Balafred@mailexcite.com)

Visit Catch My Smoke - The Motorhead Tab Page
http://www.cs.mcgill.ca/~ktulu/motorhead

Legend:
h: hammer-on
p: pull-off
b: bend
rb: release bend
/: slide up
\: slide down
~: hand vibrato
tr: trill
(): ghost note

Tuning: 6=Db, 5=Ab, 4=Db, 3=Gb, 2=Bb, 1=Eb 

Clean Intro & Verse
                       (x3)             Last Time
e|-------------------------|---------------------|
B|-------------------------|---------------------|
G|-------------------------|---------------------|
D|-----2-3-2-------2-3-2---|-----2-3-2--------2--|
A|---0-------0---0-------0-|---0-------0----0----|
E|-0-----------2-----------|-0------------2------|

Pre-Chorus
e|-------------------|-------------------|
B|-------------------|-------------------|
G|-2---2---2---2-2-2-|-2---2---2---2-5-6-|
D|-2---2---2---2-2-2-|-2---2---2---2-5-6-|
A|-0---0---0---0-0-0-|-0---0---0---0-3-4-|
E|-------------------|-------------------|
  die....

Chorus
e|------------------------------------|
B|------------------------------------|
G|----7---7-5----3--3-5-----7--7-5--3-|
D|----7---7-5----3--3-5-----7--7-5--3-|
A|----5---5-3----1--1-3-----5--5-3--1-|
E|------------------------------------|
1.Everything changes, it all stays the same..       
3.Every way out brings you back to the start   

e|----------------------------------|
B|----------------------------------|
G|----7---7-5----3-------7----9-----|
D|----7---7-5----3-------5----7--5--|
A|----5---5-3----1---------------3--|
E|----------------------------------|
2.Everyone guilty,  no one to blame
4.Everyone dies to break somebody's heart

End of chorus (once first time, twice all other times)
e|----------------|
B|----------------|
G|----5------5----|
D|----5------5----|
A|----3------3----|
E|----------------|

Second solo
----------------------------------------------
----------------------------------------------
-12b14rb12b14rb12b14-12b14rb12b14rb12b14------
----------------------------------------------
----------------------------------------------
----------------------------------------------

----------------------------------------------
----------------------------------------------
12b14rb12b14-12b14rb12p10-12--12-10----10~----
------------------------------------12-----12-
----------------------------------------------
----------------------------------------------

-------------------------13-------------------
------15-13h15--15-13-------15-13-15-13-------
--/14-----------------14----------------14-12-
----------------------------------------------
----------------------------------------------
----------------------------------------------

----------------------------------------------
--------------------18b20-18~-(18)-18b20-18v-18
(9)h10h12p10p9-9~-\---------------------------
----------------------------------------------
----------------------------------------------
----------------------------------------------

                                 with wah wah
----------------------------------------------
18b20-18~-18-15-18-17-15----------------------
------------------------17-17b19~\/12-14p12p10
----------------------------------------------
----------------------------------------------
----------------------------------------------

----------------------------------------------
----------------------------------------------
----10-----10-----10-----10-----10-----10-/12\
/12----/12----/12----/12----/12----/12--------
----------------------------------------------
----------------------------------------------

                          listen to your ear...
-------------------------/(10)-10-10-10-10\(8)
-------------------------/(10)-10-10-10-10\(8)
10/12\10/12-12b14-12~-\-----------------------
----------------------------------------------
----------------------------------------------
----------------------------------------------

8-8-8/(10)-10\(8)-8-8-8/(10)/(13)-13\(10)-10--
8-8-8/(10)-10\(8)-8-8-8/(10)/(13)-13\(10)-10--
----------------------------------------------
----------------------------------------------
----------------------------------------------
----------------------------------------------


----------------------------------------------
-18b20-18--18-15--------------------15-13-----
-----------------17-(17)b19rb17b19--------15--
----------------------------------------------
----------------------------------------------
----------------------------------------------

--------------------------------12-------12---
-----------------------------------13------13-
14b15rb14p12-14p12-12-14-15/17--------14------
----------------------------------------------
----------------------------------------------
----------------------------------------------

----12-------------12-------12-------15b17-15-
-------13-------------13-------13-------------
-14-------14-12~---------14-------14----------
----------------------------------------------
----------------------------------------------
----------------------------------------------

-b17rb15p13-15--tr15-tr13-tr12----------------
-------------------------------13b15--15-13---
--------------------------------------------14
----------------------------------------------
----------------------------------------------
----------------------------------------------

                             feedback
----------------------------------------------
----------------------------------------------
12b14rb12--10-12b14rb12p10-12-----------------
----------------------------------------------
----------------------------------------------
----------------------------------------------

Solo backing is same as chorus



MF-B 1998-2017: при цитировании ссылка на сайт Das ist Motorhead обязательна.