Motorhead tabs...
                              Love For Sale                             

                                Motorhead

Originally released on the "Snake Bite Love" album

Version 1.0
March 19th, 1998

Transcribed by Matt Javes (matt@redstart.demon.co.uk)

Visit Catch My Smoke - The Motorhead Tab Page
        http://www.cs.mcgill.ca/~ktulu/motorhead

Tune down to Eb (down half a step)

Verse
e|---------------------------------------------------|
B|---------------------------------------------------|
G|-----------------------7---------------------7-----|
D|-----------------------7---------------------7-----|
A|-7--7-5-5-7-5-7--7-5-5-5--7--7-5-5-7-5-7--5--5--7--|
E|-5--5-3-3-5-3-5--5-3-3----5--5-3-3-5-3-5--3-----5--|

Pre-Chorus          x3                                        x1
e|--------------------|-----------------------------------------|
B|--------------------|-----------------------------------------|
G|---------7--7--7--7-|-----------------------------------------|
D|-2-------7--7--7--7-|-2-------12-1212121212121212121212121212-|
A|-2-------5--5--5--5-|-2-------10-1010101010101010101010101010-|
E|-0------------------|-0---------------------------------------|

        Chorus                                         x3
e|-----|-------------------------------------------------|
B|-----|-------------------------------------------------|
G|-----|-------------------------------------------------|
D|-14--|-14--14-14-9--9--9-9-12--12--12-12-7--7--7-5--52-|
A|-12--|-12--12-12-7--7--7-7-10--10--10-10-5--5--5-3--30-|
E|-----|-------------------------------------------------|

                                                       x1
e|-------------------------------------------------------|
B|-------------------------------------------------------|
G|-------------------------------------------------------|
D|-14--14-14-9--9--9-9-12-121212121212121212121212121212-|
A|-12--12-12-7--7--7-7-10-101010101010101010101010101010-|
E|-------------------------------------------------------|

Solo Backing                             x3                         x1
e|-----------------------------------------|--------------------------|
B|-----------------------------------------|--------------------------|
G|-4--4--4-4-4--4--4-4---------------------|--------------------------|
D|-4--4--4-4-4--4--4-4-2--2--2-2-2--2--2-2-|--------7------------2----|
A|-2--2--2-2-2--2--2-2-2--2--2-2-2--2--2-2-|-7------5------7--5--2----|
E|---------------------0--0--0-0-0--0--0-0-|-5-------------5--3--0----|




MF-B 1998-2017: при цитировании ссылка на сайт Das ist Motorhead обязательна.